ISO-10303-21;
HEADER;
/* Generated by software containing ST-Developer
 * from STEP Tools, Inc. (www.steptools.com) 
 */

FILE_DESCRIPTION(
/* description */ (''),
/* implementation_level */ '2;1');

FILE_NAME(
/* name */ 
'X:\\VIRI ZA WEB\\CAD DATOTEKE\\ELEKTRI\X2\010C\X0\NI CILINDRI PNCE\\D
ODATNA OPREMA ELEKTRI\X2\010C\X0\NI CILINDRI\\PRITRDILA\\LZ\\izvoz\\CA
D_8141.stp',
/* time_stamp */ '2016-06-07T16:10:39+02:00',
/* author */ ('Hypex'),
/* organization */ ('Hypex'),
/* preprocessor_version */ 'ST-DEVELOPER v16.1',
/* originating_system */ 'Autodesk Inventor 2016',
/* authorisation */ '');

FILE_SCHEMA (('AUTOMOTIVE_DESIGN { 1 0 10303 214 3 1 1 }'));
ENDSEC;

DATA;
#10=MECHANICAL_DESIGN_GEOMETRIC_PRESENTATION_REPRESENTATION('',(#257,#258,
#259,#260,#261,#262,#263,#264,#265,#270,#266,#267,#268,#269,#271,#272,#273,
#274,#275,#276),#492);
#11=SHAPE_REPRESENTATION_RELATIONSHIP('SRR','None',#501,#12);
#12=ADVANCED_BREP_SHAPE_REPRESENTATION('',(#13),#491);
#13=MANIFOLD_SOLID_BREP('Solid1',#296);
#14=LINE('',#432,#26);
#15=LINE('',#434,#27);
#16=LINE('',#436,#28);
#17=LINE('',#437,#29);
#18=LINE('',#474,#30);
#19=LINE('',#475,#31);
#20=LINE('',#476,#32);
#21=LINE('',#479,#33);
#22=LINE('',#480,#34);
#23=LINE('',#483,#35);
#24=LINE('',#484,#36);
#25=LINE('',#486,#37);
#26=VECTOR('',#351,55.);
#27=VECTOR('',#352,36.);
#28=VECTOR('',#353,55.);
#29=VECTOR('',#354,36.);
#30=VECTOR('',#399,36.);
#31=VECTOR('',#400,18.);
#32=VECTOR('',#401,18.);
#33=VECTOR('',#404,55.);
#34=VECTOR('',#405,18.);
#35=VECTOR('',#408,36.);
#36=VECTOR('',#409,18.);
#37=VECTOR('',#412,55.);
#38=PLANE('',#304);
#39=PLANE('',#305);
#40=PLANE('',#309);
#41=PLANE('',#313);
#42=PLANE('',#320);
#43=PLANE('',#327);
#44=PLANE('',#328);
#45=PLANE('',#329);
#46=PLANE('',#330);
#47=PLANE('',#331);
#48=PLANE('',#332);
#49=FACE_BOUND('',#88,.T.);
#50=FACE_BOUND('',#90,.T.);
#51=FACE_BOUND('',#92,.T.);
#52=FACE_BOUND('',#94,.T.);
#53=FACE_BOUND('',#96,.T.);
#54=FACE_BOUND('',#98,.T.);
#55=FACE_BOUND('',#100,.T.);
#56=FACE_BOUND('',#102,.T.);
#57=FACE_BOUND('',#104,.T.);
#58=FACE_BOUND('',#106,.T.);
#59=FACE_BOUND('',#108,.T.);
#60=FACE_BOUND('',#110,.T.);
#61=FACE_BOUND('',#112,.T.);
#62=FACE_BOUND('',#115,.T.);
#63=FACE_BOUND('',#116,.T.);
#64=FACE_BOUND('',#119,.T.);
#65=FACE_BOUND('',#120,.T.);
#66=FACE_BOUND('',#122,.T.);
#67=FACE_BOUND('',#124,.T.);
#68=FACE_OUTER_BOUND('',#87,.T.);
#69=FACE_OUTER_BOUND('',#89,.T.);
#70=FACE_OUTER_BOUND('',#91,.T.);
#71=FACE_OUTER_BOUND('',#93,.T.);
#72=FACE_OUTER_BOUND('',#95,.T.);
#73=FACE_OUTER_BOUND('',#97,.T.);
#74=FACE_OUTER_BOUND('',#99,.T.);
#75=FACE_OUTER_BOUND('',#101,.T.);
#76=FACE_OUTER_BOUND('',#103,.T.);
#77=FACE_OUTER_BOUND('',#105,.T.);
#78=FACE_OUTER_BOUND('',#107,.T.);
#79=FACE_OUTER_BOUND('',#109,.T.);
#80=FACE_OUTER_BOUND('',#111,.T.);
#81=FACE_OUTER_BOUND('',#113,.T.);
#82=FACE_OUTER_BOUND('',#114,.T.);
#83=FACE_OUTER_BOUND('',#117,.T.);
#84=FACE_OUTER_BOUND('',#118,.T.);
#85=FACE_OUTER_BOUND('',#121,.T.);
#86=FACE_OUTER_BOUND('',#123,.T.);
#87=EDGE_LOOP('',(#193));
#88=EDGE_LOOP('',(#194));
#89=EDGE_LOOP('',(#195));
#90=EDGE_LOOP('',(#196));
#91=EDGE_LOOP('',(#197));
#92=EDGE_LOOP('',(#198));
#93=EDGE_LOOP('',(#199,#200,#201,#202));
#94=EDGE_LOOP('',(#203));
#95=EDGE_LOOP('',(#204));
#96=EDGE_LOOP('',(#205));
#97=EDGE_LOOP('',(#206));
#98=EDGE_LOOP('',(#207));
#99=EDGE_LOOP('',(#208));
#100=EDGE_LOOP('',(#209));
#101=EDGE_LOOP('',(#210));
#102=EDGE_LOOP('',(#211));
#103=EDGE_LOOP('',(#212));
#104=EDGE_LOOP('',(#213));
#105=EDGE_LOOP('',(#214));
#106=EDGE_LOOP('',(#215));
#107=EDGE_LOOP('',(#216));
#108=EDGE_LOOP('',(#217));
#109=EDGE_LOOP('',(#218));
#110=EDGE_LOOP('',(#219));
#111=EDGE_LOOP('',(#220));
#112=EDGE_LOOP('',(#221));
#113=EDGE_LOOP('',(#222,#223,#224,#225));
#114=EDGE_LOOP('',(#226,#227,#228,#229));
#115=EDGE_LOOP('',(#230));
#116=EDGE_LOOP('',(#231));
#117=EDGE_LOOP('',(#232,#233,#234,#235));
#118=EDGE_LOOP('',(#236,#237,#238,#239));
#119=EDGE_LOOP('',(#240));
#120=EDGE_LOOP('',(#241));
#121=EDGE_LOOP('',(#242,#243,#244,#245));
#122=EDGE_LOOP('',(#246));
#123=EDGE_LOOP('',(#247));
#124=EDGE_LOOP('',(#248));
#125=CIRCLE('',#299,11.);
#126=CIRCLE('',#300,11.);
#127=CIRCLE('',#302,11.5);
#128=CIRCLE('',#303,11.5);
#129=CIRCLE('',#307,8.);
#130=CIRCLE('',#308,8.00000000000001);
#131=CIRCLE('',#310,14.);
#132=CIRCLE('',#312,14.);
#133=CIRCLE('',#314,7.5);
#134=CIRCLE('',#315,4.5);
#135=CIRCLE('',#317,7.5);
#136=CIRCLE('',#319,4.5);
#137=CIRCLE('',#321,7.5);
#138=CIRCLE('',#322,4.5);
#139=CIRCLE('',#324,7.5);
#140=CIRCLE('',#326,4.5);
#141=VERTEX_POINT('',#419);
#142=VERTEX_POINT('',#421);
#143=VERTEX_POINT('',#424);
#144=VERTEX_POINT('',#426);
#145=VERTEX_POINT('',#430);
#146=VERTEX_POINT('',#431);
#147=VERTEX_POINT('',#433);
#148=VERTEX_POINT('',#435);
#149=VERTEX_POINT('',#439);
#150=VERTEX_POINT('',#441);
#151=VERTEX_POINT('',#444);
#152=VERTEX_POINT('',#447);
#153=VERTEX_POINT('',#450);
#154=VERTEX_POINT('',#452);
#155=VERTEX_POINT('',#455);
#156=VERTEX_POINT('',#458);
#157=VERTEX_POINT('',#461);
#158=VERTEX_POINT('',#463);
#159=VERTEX_POINT('',#466);
#160=VERTEX_POINT('',#469);
#161=VERTEX_POINT('',#472);
#162=VERTEX_POINT('',#473);
#163=VERTEX_POINT('',#478);
#164=VERTEX_POINT('',#482);
#165=EDGE_CURVE('',#141,#141,#125,.T.);
#166=EDGE_CURVE('',#142,#142,#126,.T.);
#167=EDGE_CURVE('',#143,#143,#127,.T.);
#168=EDGE_CURVE('',#144,#144,#128,.T.);
#169=EDGE_CURVE('',#145,#146,#14,.T.);
#170=EDGE_CURVE('',#146,#147,#15,.T.);
#171=EDGE_CURVE('',#147,#148,#16,.T.);
#172=EDGE_CURVE('',#148,#145,#17,.T.);
#173=EDGE_CURVE('',#149,#149,#129,.T.);
#174=EDGE_CURVE('',#150,#150,#130,.T.);
#175=EDGE_CURVE('',#151,#151,#131,.T.);
#176=EDGE_CURVE('',#152,#152,#132,.T.);
#177=EDGE_CURVE('',#153,#153,#133,.T.);
#178=EDGE_CURVE('',#154,#154,#134,.T.);
#179=EDGE_CURVE('',#155,#155,#135,.T.);
#180=EDGE_CURVE('',#156,#156,#136,.T.);
#181=EDGE_CURVE('',#157,#157,#137,.T.);
#182=EDGE_CURVE('',#158,#158,#138,.T.);
#183=EDGE_CURVE('',#159,#159,#139,.T.);
#184=EDGE_CURVE('',#160,#160,#140,.T.);
#185=EDGE_CURVE('',#161,#162,#18,.T.);
#186=EDGE_CURVE('',#147,#162,#19,.T.);
#187=EDGE_CURVE('',#146,#161,#20,.T.);
#188=EDGE_CURVE('',#162,#163,#21,.T.);
#189=EDGE_CURVE('',#148,#163,#22,.T.);
#190=EDGE_CURVE('',#163,#164,#23,.T.);
#191=EDGE_CURVE('',#145,#164,#24,.T.);
#192=EDGE_CURVE('',#164,#161,#25,.T.);
#193=ORIENTED_EDGE('',*,*,#165,.T.);
#194=ORIENTED_EDGE('',*,*,#166,.F.);
#195=ORIENTED_EDGE('',*,*,#167,.F.);
#196=ORIENTED_EDGE('',*,*,#168,.F.);
#197=ORIENTED_EDGE('',*,*,#167,.T.);
#198=ORIENTED_EDGE('',*,*,#165,.F.);
#199=ORIENTED_EDGE('',*,*,#169,.T.);
#200=ORIENTED_EDGE('',*,*,#170,.T.);
#201=ORIENTED_EDGE('',*,*,#171,.T.);
#202=ORIENTED_EDGE('',*,*,#172,.T.);
#203=ORIENTED_EDGE('',*,*,#168,.T.);
#204=ORIENTED_EDGE('',*,*,#173,.F.);
#205=ORIENTED_EDGE('',*,*,#174,.T.);
#206=ORIENTED_EDGE('',*,*,#175,.F.);
#207=ORIENTED_EDGE('',*,*,#173,.T.);
#208=ORIENTED_EDGE('',*,*,#176,.F.);
#209=ORIENTED_EDGE('',*,*,#175,.T.);
#210=ORIENTED_EDGE('',*,*,#177,.F.);
#211=ORIENTED_EDGE('',*,*,#178,.T.);
#212=ORIENTED_EDGE('',*,*,#179,.F.);
#213=ORIENTED_EDGE('',*,*,#177,.T.);
#214=ORIENTED_EDGE('',*,*,#180,.F.);
#215=ORIENTED_EDGE('',*,*,#178,.F.);
#216=ORIENTED_EDGE('',*,*,#181,.T.);
#217=ORIENTED_EDGE('',*,*,#182,.F.);
#218=ORIENTED_EDGE('',*,*,#183,.F.);
#219=ORIENTED_EDGE('',*,*,#181,.F.);
#220=ORIENTED_EDGE('',*,*,#184,.F.);
#221=ORIENTED_EDGE('',*,*,#182,.T.);
#222=ORIENTED_EDGE('',*,*,#185,.T.);
#223=ORIENTED_EDGE('',*,*,#186,.F.);
#224=ORIENTED_EDGE('',*,*,#170,.F.);
#225=ORIENTED_EDGE('',*,*,#187,.T.);
#226=ORIENTED_EDGE('',*,*,#188,.T.);
#227=ORIENTED_EDGE('',*,*,#189,.F.);
#228=ORIENTED_EDGE('',*,*,#171,.F.);
#229=ORIENTED_EDGE('',*,*,#186,.T.);
#230=ORIENTED_EDGE('',*,*,#179,.T.);
#231=ORIENTED_EDGE('',*,*,#183,.T.);
#232=ORIENTED_EDGE('',*,*,#190,.T.);
#233=ORIENTED_EDGE('',*,*,#191,.F.);
#234=ORIENTED_EDGE('',*,*,#172,.F.);
#235=ORIENTED_EDGE('',*,*,#189,.T.);
#236=ORIENTED_EDGE('',*,*,#192,.T.);
#237=ORIENTED_EDGE('',*,*,#187,.F.);
#238=ORIENTED_EDGE('',*,*,#169,.F.);
#239=ORIENTED_EDGE('',*,*,#191,.T.);
#240=ORIENTED_EDGE('',*,*,#180,.T.);
#241=ORIENTED_EDGE('',*,*,#184,.T.);
#242=ORIENTED_EDGE('',*,*,#185,.F.);
#243=ORIENTED_EDGE('',*,*,#192,.F.);
#244=ORIENTED_EDGE('',*,*,#190,.F.);
#245=ORIENTED_EDGE('',*,*,#188,.F.);
#246=ORIENTED_EDGE('',*,*,#176,.T.);
#247=ORIENTED_EDGE('',*,*,#166,.T.);
#248=ORIENTED_EDGE('',*,*,#174,.F.);
#249=CYLINDRICAL_SURFACE('',#298,11.);
#250=CYLINDRICAL_SURFACE('',#301,11.5);
#251=CYLINDRICAL_SURFACE('',#306,8.);
#252=CYLINDRICAL_SURFACE('',#311,14.);
#253=CYLINDRICAL_SURFACE('',#316,7.5);
#254=CYLINDRICAL_SURFACE('',#318,4.5);
#255=CYLINDRICAL_SURFACE('',#323,7.5);
#256=CYLINDRICAL_SURFACE('',#325,4.5);
#257=STYLED_ITEM('',(#511),#277);
#258=STYLED_ITEM('',(#511),#278);
#259=STYLED_ITEM('',(#511),#279);
#260=STYLED_ITEM('',(#511),#280);
#261=STYLED_ITEM('',(#511),#281);
#262=STYLED_ITEM('',(#511),#282);
#263=STYLED_ITEM('',(#511),#283);
#264=STYLED_ITEM('',(#511),#284);
#265=STYLED_ITEM('',(#511),#285);
#266=STYLED_ITEM('',(#511),#286);
#267=STYLED_ITEM('',(#511),#287);
#268=STYLED_ITEM('',(#511),#288);
#269=STYLED_ITEM('',(#511),#289);
#270=STYLED_ITEM('',(#511),#290);
#271=STYLED_ITEM('',(#511),#291);
#272=STYLED_ITEM('',(#511),#292);
#273=STYLED_ITEM('',(#511),#293);
#274=STYLED_ITEM('',(#511),#294);
#275=STYLED_ITEM('',(#511),#295);
#276=STYLED_ITEM('',(#510),#13);
#277=ADVANCED_FACE('',(#68,#49),#249,.T.);
#278=ADVANCED_FACE('',(#69,#50),#250,.F.);
#279=ADVANCED_FACE('',(#70,#51),#38,.F.);
#280=ADVANCED_FACE('',(#71,#52),#39,.T.);
#281=ADVANCED_FACE('',(#72,#53),#251,.F.);
#282=ADVANCED_FACE('',(#73,#54),#40,.T.);
#283=ADVANCED_FACE('',(#74,#55),#252,.T.);
#284=ADVANCED_FACE('',(#75,#56),#41,.F.);
#285=ADVANCED_FACE('',(#76,#57),#253,.F.);
#286=ADVANCED_FACE('',(#77,#58),#254,.F.);
#287=ADVANCED_FACE('',(#78,#59),#42,.T.);
#288=ADVANCED_FACE('',(#79,#60),#255,.F.);
#289=ADVANCED_FACE('',(#80,#61),#256,.F.);
#290=ADVANCED_FACE('',(#81),#43,.T.);
#291=ADVANCED_FACE('',(#82,#62,#63),#44,.T.);
#292=ADVANCED_FACE('',(#83),#45,.T.);
#293=ADVANCED_FACE('',(#84,#64,#65),#46,.T.);
#294=ADVANCED_FACE('',(#85,#66),#47,.F.);
#295=ADVANCED_FACE('',(#86,#67),#48,.T.);
#296=CLOSED_SHELL('',(#277,#278,#279,#280,#281,#282,#283,#284,#285,#286,
#287,#288,#289,#290,#291,#292,#293,#294,#295));
#297=AXIS2_PLACEMENT_3D('placement',#417,#333,#334);
#298=AXIS2_PLACEMENT_3D('',#418,#335,#336);
#299=AXIS2_PLACEMENT_3D('',#420,#337,#338);
#300=AXIS2_PLACEMENT_3D('',#422,#339,#340);
#301=AXIS2_PLACEMENT_3D('',#423,#341,#342);
#302=AXIS2_PLACEMENT_3D('',#425,#343,#344);
#303=AXIS2_PLACEMENT_3D('',#427,#345,#346);
#304=AXIS2_PLACEMENT_3D('',#428,#347,#348);
#305=AXIS2_PLACEMENT_3D('',#429,#349,#350);
#306=AXIS2_PLACEMENT_3D('',#438,#355,#356);
#307=AXIS2_PLACEMENT_3D('',#440,#357,#358);
#308=AXIS2_PLACEMENT_3D('',#442,#359,#360);
#309=AXIS2_PLACEMENT_3D('',#443,#361,#362);
#310=AXIS2_PLACEMENT_3D('',#445,#363,#364);
#311=AXIS2_PLACEMENT_3D('',#446,#365,#366);
#312=AXIS2_PLACEMENT_3D('',#448,#367,#368);
#313=AXIS2_PLACEMENT_3D('',#449,#369,#370);
#314=AXIS2_PLACEMENT_3D('',#451,#371,#372);
#315=AXIS2_PLACEMENT_3D('',#453,#373,#374);
#316=AXIS2_PLACEMENT_3D('',#454,#375,#376);
#317=AXIS2_PLACEMENT_3D('',#456,#377,#378);
#318=AXIS2_PLACEMENT_3D('',#457,#379,#380);
#319=AXIS2_PLACEMENT_3D('',#459,#381,#382);
#320=AXIS2_PLACEMENT_3D('',#460,#383,#384);
#321=AXIS2_PLACEMENT_3D('',#462,#385,#386);
#322=AXIS2_PLACEMENT_3D('',#464,#387,#388);
#323=AXIS2_PLACEMENT_3D('',#465,#389,#390);
#324=AXIS2_PLACEMENT_3D('',#467,#391,#392);
#325=AXIS2_PLACEMENT_3D('',#468,#393,#394);
#326=AXIS2_PLACEMENT_3D('',#470,#395,#396);
#327=AXIS2_PLACEMENT_3D('',#471,#397,#398);
#328=AXIS2_PLACEMENT_3D('',#477,#402,#403);
#329=AXIS2_PLACEMENT_3D('',#481,#406,#407);
#330=AXIS2_PLACEMENT_3D('',#485,#410,#411);
#331=AXIS2_PLACEMENT_3D('',#487,#413,#414);
#332=AXIS2_PLACEMENT_3D('',#488,#415,#416);
#333=DIRECTION('axis',(0.,0.,1.));
#334=DIRECTION('refdir',(1.,0.,0.));
#335=DIRECTION('center_axis',(0.,0.,-1.));
#336=DIRECTION('ref_axis',(-1.,0.,0.));
#337=DIRECTION('center_axis',(0.,0.,1.));
#338=DIRECTION('ref_axis',(-1.,0.,0.));
#339=DIRECTION('center_axis',(0.,0.,1.));
#340=DIRECTION('ref_axis',(-1.,0.,0.));
#341=DIRECTION('center_axis',(0.,0.,-1.));
#342=DIRECTION('ref_axis',(-1.,0.,0.));
#343=DIRECTION('center_axis',(0.,0.,1.));
#344=DIRECTION('ref_axis',(-1.,0.,0.));
#345=DIRECTION('center_axis',(0.,0.,-1.));
#346=DIRECTION('ref_axis',(-1.,0.,0.));
#347=DIRECTION('center_axis',(0.,0.,-1.));
#348=DIRECTION('ref_axis',(-1.,0.,0.));
#349=DIRECTION('center_axis',(0.,0.,1.));
#350=DIRECTION('ref_axis',(1.,0.,0.));
#351=DIRECTION('',(1.,0.,0.));
#352=DIRECTION('',(0.,1.,0.));
#353=DIRECTION('',(-1.,-1.21115239050017E-16,0.));
#354=DIRECTION('',(2.46716227694479E-16,-1.,0.));
#355=DIRECTION('center_axis',(0.,0.,1.));
#356=DIRECTION('ref_axis',(0.,-1.,0.));
#357=DIRECTION('center_axis',(0.,0.,1.));
#358=DIRECTION('ref_axis',(0.,-1.,0.));
#359=DIRECTION('center_axis',(0.,0.,1.));
#360=DIRECTION('ref_axis',(0.,-1.,0.));
#361=DIRECTION('center_axis',(0.,0.,-1.));
#362=DIRECTION('ref_axis',(-1.,0.,0.));
#363=DIRECTION('center_axis',(0.,0.,1.));
#364=DIRECTION('ref_axis',(0.,-1.,0.));
#365=DIRECTION('center_axis',(0.,0.,1.));
#366=DIRECTION('ref_axis',(0.,-1.,0.));
#367=DIRECTION('center_axis',(0.,0.,1.));
#368=DIRECTION('ref_axis',(0.,-1.,0.));
#369=DIRECTION('center_axis',(-1.21115239050017E-16,-1.,0.));
#370=DIRECTION('ref_axis',(-1.,1.77635683940025E-16,0.));
#371=DIRECTION('center_axis',(-1.21115239050017E-16,-1.,0.));
#372=DIRECTION('ref_axis',(-1.,1.21115239050017E-16,0.));
#373=DIRECTION('center_axis',(-1.21115239050017E-16,-1.,0.));
#374=DIRECTION('ref_axis',(-1.,1.21115239050017E-16,0.));
#375=DIRECTION('center_axis',(-1.21115239050017E-16,-1.,0.));
#376=DIRECTION('ref_axis',(-1.,1.21115239050017E-16,0.));
#377=DIRECTION('center_axis',(1.21115239050017E-16,-1.,0.));
#378=DIRECTION('ref_axis',(-1.,1.21115239050017E-16,0.));
#379=DIRECTION('center_axis',(-1.21115239050017E-16,-1.,0.));
#380=DIRECTION('ref_axis',(-1.,1.21115239050017E-16,0.));
#381=DIRECTION('center_axis',(0.,1.,0.));
#382=DIRECTION('ref_axis',(-1.,1.21115239050017E-16,0.));
#383=DIRECTION('center_axis',(-1.21115239050017E-16,1.,0.));
#384=DIRECTION('ref_axis',(1.,1.77635683940025E-16,0.));
#385=DIRECTION('center_axis',(-1.21115239050017E-16,1.,0.));
#386=DIRECTION('ref_axis',(1.,1.21115239050017E-16,0.));
#387=DIRECTION('center_axis',(-1.21115239050017E-16,1.,0.));
#388=DIRECTION('ref_axis',(1.,1.21115239050017E-16,0.));
#389=DIRECTION('center_axis',(-1.21115239050017E-16,1.,0.));
#390=DIRECTION('ref_axis',(1.,1.21115239050017E-16,0.));
#391=DIRECTION('center_axis',(1.21115239050017E-16,-1.,0.));
#392=DIRECTION('ref_axis',(1.,1.21115239050017E-16,0.));
#393=DIRECTION('center_axis',(-1.21115239050017E-16,1.,0.));
#394=DIRECTION('ref_axis',(1.,1.21115239050017E-16,0.));
#395=DIRECTION('center_axis',(0.,1.,0.));
#396=DIRECTION('ref_axis',(1.,1.21115239050017E-16,0.));
#397=DIRECTION('center_axis',(1.,0.,0.));
#398=DIRECTION('ref_axis',(0.,0.,-1.));
#399=DIRECTION('',(0.,1.,0.));
#400=DIRECTION('',(0.,0.,-1.));
#401=DIRECTION('',(0.,0.,-1.));
#402=DIRECTION('center_axis',(-1.21115239050017E-16,1.,0.));
#403=DIRECTION('ref_axis',(0.,0.,1.));
#404=DIRECTION('',(-1.,-1.21115239050017E-16,0.));
#405=DIRECTION('',(0.,0.,-1.));
#406=DIRECTION('center_axis',(-1.,-2.46716227694479E-16,0.));
#407=DIRECTION('ref_axis',(0.,0.,1.));
#408=DIRECTION('',(2.46716227694479E-16,-1.,0.));
#409=DIRECTION('',(0.,0.,-1.));
#410=DIRECTION('center_axis',(0.,-1.,0.));
#411=DIRECTION('ref_axis',(0.,0.,-1.));
#412=DIRECTION('',(1.,0.,0.));
#413=DIRECTION('center_axis',(0.,0.,1.));
#414=DIRECTION('ref_axis',(1.,0.,0.));
#415=DIRECTION('center_axis',(0.,0.,1.));
#416=DIRECTION('ref_axis',(1.,0.,0.));
#417=CARTESIAN_POINT('',(0.,0.,0.));
#418=CARTESIAN_POINT('Origin',(0.,0.,0.));
#419=CARTESIAN_POINT('',(11.,1.34706698920462E-15,-0.5));
#420=CARTESIAN_POINT('Origin',(0.,0.,-0.5));
#421=CARTESIAN_POINT('',(11.,1.34706698920462E-15,0.));
#422=CARTESIAN_POINT('Origin',(0.,0.,0.));
#423=CARTESIAN_POINT('Origin',(0.,0.,0.));
#424=CARTESIAN_POINT('',(11.5,1.40829730689573E-15,-0.5));
#425=CARTESIAN_POINT('Origin',(0.,0.,-0.5));
#426=CARTESIAN_POINT('',(11.5,1.40829730689573E-15,0.));
#427=CARTESIAN_POINT('Origin',(0.,0.,0.));
#428=CARTESIAN_POINT('Origin',(0.,0.,-0.5));
#429=CARTESIAN_POINT('Origin',(-2.22044604925031E-15,-2.22820984662531E-15,
0.));
#430=CARTESIAN_POINT('',(-27.5,-18.,0.));
#431=CARTESIAN_POINT('',(27.5,-18.,0.));
#432=CARTESIAN_POINT('',(-27.5,-18.,0.));
#433=CARTESIAN_POINT('',(27.5,18.,0.));
#434=CARTESIAN_POINT('',(27.5,-18.,0.));
#435=CARTESIAN_POINT('',(-27.5,18.,0.));
#436=CARTESIAN_POINT('',(27.5,18.,0.));
#437=CARTESIAN_POINT('',(-27.5,18.,0.));
#438=CARTESIAN_POINT('Origin',(0.,0.,-10.5));
#439=CARTESIAN_POINT('',(0.,-8.,-21.));
#440=CARTESIAN_POINT('Origin',(0.,0.,-21.));
#441=CARTESIAN_POINT('',(0.,-8.00000000000001,0.));
#442=CARTESIAN_POINT('Origin',(0.,0.,0.));
#443=CARTESIAN_POINT('Origin',(0.,-11.,-21.));
#444=CARTESIAN_POINT('',(0.,-14.,-21.));
#445=CARTESIAN_POINT('Origin',(0.,0.,-21.));
#446=CARTESIAN_POINT('Origin',(0.,0.,-19.5));
#447=CARTESIAN_POINT('',(0.,-14.,-18.));
#448=CARTESIAN_POINT('Origin',(0.,0.,-18.));
#449=CARTESIAN_POINT('Origin',(18.,8.99999999999999,-9.));
#450=CARTESIAN_POINT('',(10.5,8.99999999999999,-9.));
#451=CARTESIAN_POINT('Origin',(18.,8.99999999999999,-9.));
#452=CARTESIAN_POINT('',(22.5,8.99999999999999,-9.));
#453=CARTESIAN_POINT('Origin',(18.,8.99999999999999,-9.));
#454=CARTESIAN_POINT('Origin',(18.,13.5,-9.));
#455=CARTESIAN_POINT('',(10.5,18.,-9.));
#456=CARTESIAN_POINT('Origin',(18.,18.,-9.));
#457=CARTESIAN_POINT('Origin',(18.,-50.154236845555,-9.));
#458=CARTESIAN_POINT('',(22.5,-18.,-9.));
#459=CARTESIAN_POINT('Origin',(18.,-18.,-9.));
#460=CARTESIAN_POINT('Origin',(-18.,8.99999999999999,-9.));
#461=CARTESIAN_POINT('',(-10.5,8.99999999999999,-9.));
#462=CARTESIAN_POINT('Origin',(-18.,8.99999999999999,-9.));
#463=CARTESIAN_POINT('',(-22.5,8.99999999999999,-9.));
#464=CARTESIAN_POINT('Origin',(-18.,8.99999999999999,-9.));
#465=CARTESIAN_POINT('Origin',(-18.,13.5,-9.));
#466=CARTESIAN_POINT('',(-10.5,18.,-9.));
#467=CARTESIAN_POINT('Origin',(-18.,18.,-9.));
#468=CARTESIAN_POINT('Origin',(-18.,-50.154236845555,-9.));
#469=CARTESIAN_POINT('',(-22.5,-18.,-9.));
#470=CARTESIAN_POINT('Origin',(-18.,-18.,-9.));
#471=CARTESIAN_POINT('Origin',(27.5,-18.,0.));
#472=CARTESIAN_POINT('',(27.5,-18.,-18.));
#473=CARTESIAN_POINT('',(27.5,18.,-18.));
#474=CARTESIAN_POINT('',(27.5,-18.,-18.));
#475=CARTESIAN_POINT('',(27.5,18.,0.));
#476=CARTESIAN_POINT('',(27.5,-18.,0.));
#477=CARTESIAN_POINT('Origin',(27.5,18.,0.));
#478=CARTESIAN_POINT('',(-27.5,18.,-18.));
#479=CARTESIAN_POINT('',(27.5,18.,-18.));
#480=CARTESIAN_POINT('',(-27.5,18.,0.));
#481=CARTESIAN_POINT('Origin',(-27.5,18.,0.));
#482=CARTESIAN_POINT('',(-27.5,-18.,-18.));
#483=CARTESIAN_POINT('',(-27.5,18.,-18.));
#484=CARTESIAN_POINT('',(-27.5,-18.,0.));
#485=CARTESIAN_POINT('Origin',(-27.5,-18.,0.));
#486=CARTESIAN_POINT('',(-27.5,-18.,-18.));
#487=CARTESIAN_POINT('Origin',(-2.22044604925031E-15,-2.30030225082175E-15,
-18.));
#488=CARTESIAN_POINT('Origin',(-2.22044604925031E-15,-2.22820984662531E-15,
0.));
#489=UNCERTAINTY_MEASURE_WITH_UNIT(LENGTH_MEASURE(0.01),#493,
'DISTANCE_ACCURACY_VALUE',
'Maximum model space distance between geometric entities at asserted c
onnectivities');
#490=UNCERTAINTY_MEASURE_WITH_UNIT(LENGTH_MEASURE(1.E-6),#493,
'DISTANCE_ACCURACY_VALUE',
'Maximum model space distance between geometric entities at asserted c
onnectivities');
#491=(
GEOMETRIC_REPRESENTATION_CONTEXT(3)
GLOBAL_UNCERTAINTY_ASSIGNED_CONTEXT((#489))
GLOBAL_UNIT_ASSIGNED_CONTEXT((#493,#496,#494))
REPRESENTATION_CONTEXT('','3D')
);
#492=(
GEOMETRIC_REPRESENTATION_CONTEXT(3)
GLOBAL_UNCERTAINTY_ASSIGNED_CONTEXT((#490))
GLOBAL_UNIT_ASSIGNED_CONTEXT((#493,#496,#494))
REPRESENTATION_CONTEXT('','3D')
);
#493=(
LENGTH_UNIT()
NAMED_UNIT(*)
SI_UNIT(.MILLI.,.METRE.)
);
#494=(
NAMED_UNIT(*)
SI_UNIT($,.STERADIAN.)
SOLID_ANGLE_UNIT()
);
#495=DIMENSIONAL_EXPONENTS(0.,0.,0.,0.,0.,0.,0.);
#496=(
CONVERSION_BASED_UNIT('degree',#498)
NAMED_UNIT(#495)
PLANE_ANGLE_UNIT()
);
#497=(
NAMED_UNIT(*)
PLANE_ANGLE_UNIT()
SI_UNIT($,.RADIAN.)
);
#498=PLANE_ANGLE_MEASURE_WITH_UNIT(PLANE_ANGLE_MEASURE(0.01745329252),#497);
#499=SHAPE_DEFINITION_REPRESENTATION(#500,#501);
#500=PRODUCT_DEFINITION_SHAPE('',$,#503);
#501=SHAPE_REPRESENTATION('',(#297),#491);
#502=PRODUCT_DEFINITION_CONTEXT('part definition',#507,'design');
#503=PRODUCT_DEFINITION('CAD_8141','CAD_8141',#504,#502);
#504=PRODUCT_DEFINITION_FORMATION('',$,#509);
#505=PRODUCT_RELATED_PRODUCT_CATEGORY('CAD_8141','CAD_8141',(#509));
#506=APPLICATION_PROTOCOL_DEFINITION('international standard',
'automotive_design',2009,#507);
#507=APPLICATION_CONTEXT(
'Core Data for Automotive Mechanical Design Process');
#508=PRODUCT_CONTEXT('part definition',#507,'mechanical');
#509=PRODUCT('CAD_8141','CAD_8141',$,(#508));
#510=PRESENTATION_STYLE_ASSIGNMENT((#512));
#511=PRESENTATION_STYLE_ASSIGNMENT((#513));
#512=SURFACE_STYLE_USAGE(.BOTH.,#514);
#513=SURFACE_STYLE_USAGE(.BOTH.,#515);
#514=SURFACE_SIDE_STYLE('',(#516));
#515=SURFACE_SIDE_STYLE('',(#517));
#516=SURFACE_STYLE_FILL_AREA(#518);
#517=SURFACE_STYLE_FILL_AREA(#519);
#518=FILL_AREA_STYLE('',(#520));
#519=FILL_AREA_STYLE('',(#521));
#520=FILL_AREA_STYLE_COLOUR('',#522);
#521=FILL_AREA_STYLE_COLOUR('',#523);
#522=COLOUR_RGB('',0.87843137254902,0.874509803921569,0.858823529411765);
#523=COLOUR_RGB('',0.63921568627451,0.63921568627451,0.686274509803922);
ENDSEC;
END-ISO-10303-21;
