ISO-10303-21;
HEADER;
/* Generated by software containing ST-Developer
 * from STEP Tools, Inc. (www.steptools.com) 
 */

FILE_DESCRIPTION(
/* description */ (''),
/* implementation_level */ '2;1');

FILE_NAME(
/* name */ 
'X:\\VIRI ZA WEB\\CAD DATOTEKE\\ELEKTRI\X2\010C\X0\NI CILINDRI PNCE\\D
ODATNA OPREMA ELEKTRI\X2\010C\X0\NI CILINDRI\\PRITRDILA\\LZ\\izvoz\\CA
D_8143.stp',
/* time_stamp */ '2016-06-07T16:12:53+02:00',
/* author */ ('Hypex'),
/* organization */ ('Hypex'),
/* preprocessor_version */ 'ST-DEVELOPER v16.1',
/* originating_system */ 'Autodesk Inventor 2016',
/* authorisation */ '');

FILE_SCHEMA (('AUTOMOTIVE_DESIGN { 1 0 10303 214 3 1 1 }'));
ENDSEC;

DATA;
#10=MECHANICAL_DESIGN_GEOMETRIC_PRESENTATION_REPRESENTATION('',(#350,#351,
#348,#347,#352,#349,#345,#346,#342,#343,#341,#344,#339,#338,#340,#337,#353,
#354,#356,#355,#357),#653);
#11=SHAPE_REPRESENTATION_RELATIONSHIP('SRR','None',#662,#12);
#12=ADVANCED_BREP_SHAPE_REPRESENTATION('',(#13),#652);
#13=MANIFOLD_SOLID_BREP('Solid1',#385);
#14=LINE('',#580,#26);
#15=LINE('',#582,#27);
#16=LINE('',#584,#28);
#17=LINE('',#585,#29);
#18=LINE('',#616,#30);
#19=LINE('',#618,#31);
#20=LINE('',#619,#32);
#21=LINE('',#628,#33);
#22=LINE('',#629,#34);
#23=LINE('',#630,#35);
#24=LINE('',#646,#36);
#25=LINE('',#648,#37);
#26=VECTOR('',#470,65.);
#27=VECTOR('',#471,20.);
#28=VECTOR('',#472,65.);
#29=VECTOR('',#473,20.);
#30=VECTOR('',#512,40.);
#31=VECTOR('',#513,65.);
#32=VECTOR('',#514,40.);
#33=VECTOR('',#523,65.);
#34=VECTOR('',#524,20.);
#35=VECTOR('',#525,20.);
#36=VECTOR('',#548,40.);
#37=VECTOR('',#551,40.);
#38=CONICAL_SURFACE('',#392,10.25,44.9999999999999);
#39=CONICAL_SURFACE('',#398,5.75,45.0000000000002);
#40=CONICAL_SURFACE('',#405,5.75,44.9999999999961);
#41=CONICAL_SURFACE('',#409,15.75,45.0000000000001);
#42=CONICAL_SURFACE('',#416,10.25,44.9999999999998);
#43=CONICAL_SURFACE('',#417,13.75,45.);
#44=CONICAL_SURFACE('',#421,9.25,44.9999999999999);
#45=CONICAL_SURFACE('',#428,9.25,44.9999999999993);
#46=PLANE('',#390);
#47=PLANE('',#401);
#48=PLANE('',#412);
#49=PLANE('',#420);
#50=PLANE('',#424);
#51=PLANE('',#432);
#52=PLANE('',#433);
#53=PLANE('',#434);
#54=PLANE('',#435);
#55=PLANE('',#436);
#56=PLANE('',#437);
#57=FACE_BOUND('',#112,.T.);
#58=FACE_BOUND('',#114,.T.);
#59=FACE_BOUND('',#116,.T.);
#60=FACE_BOUND('',#118,.T.);
#61=FACE_BOUND('',#120,.T.);
#62=FACE_BOUND('',#122,.T.);
#63=FACE_BOUND('',#124,.T.);
#64=FACE_BOUND('',#125,.T.);
#65=FACE_BOUND('',#127,.T.);
#66=FACE_BOUND('',#129,.T.);
#67=FACE_BOUND('',#131,.T.);
#68=FACE_BOUND('',#133,.T.);
#69=FACE_BOUND('',#135,.T.);
#70=FACE_BOUND('',#137,.T.);
#71=FACE_BOUND('',#139,.T.);
#72=FACE_BOUND('',#141,.T.);
#73=FACE_BOUND('',#143,.T.);
#74=FACE_BOUND('',#145,.T.);
#75=FACE_BOUND('',#147,.T.);
#76=FACE_BOUND('',#148,.T.);
#77=FACE_BOUND('',#150,.T.);
#78=FACE_BOUND('',#152,.T.);
#79=FACE_BOUND('',#154,.T.);
#80=FACE_BOUND('',#156,.T.);
#81=FACE_BOUND('',#158,.T.);
#82=FACE_BOUND('',#160,.T.);
#83=FACE_BOUND('',#164,.T.);
#84=FACE_OUTER_BOUND('',#111,.T.);
#85=FACE_OUTER_BOUND('',#113,.T.);
#86=FACE_OUTER_BOUND('',#115,.T.);
#87=FACE_OUTER_BOUND('',#117,.T.);
#88=FACE_OUTER_BOUND('',#119,.T.);
#89=FACE_OUTER_BOUND('',#121,.T.);
#90=FACE_OUTER_BOUND('',#123,.T.);
#91=FACE_OUTER_BOUND('',#126,.T.);
#92=FACE_OUTER_BOUND('',#128,.T.);
#93=FACE_OUTER_BOUND('',#130,.T.);
#94=FACE_OUTER_BOUND('',#132,.T.);
#95=FACE_OUTER_BOUND('',#134,.T.);
#96=FACE_OUTER_BOUND('',#136,.T.);
#97=FACE_OUTER_BOUND('',#138,.T.);
#98=FACE_OUTER_BOUND('',#140,.T.);
#99=FACE_OUTER_BOUND('',#142,.T.);
#100=FACE_OUTER_BOUND('',#144,.T.);
#101=FACE_OUTER_BOUND('',#146,.T.);
#102=FACE_OUTER_BOUND('',#149,.T.);
#103=FACE_OUTER_BOUND('',#151,.T.);
#104=FACE_OUTER_BOUND('',#153,.T.);
#105=FACE_OUTER_BOUND('',#155,.T.);
#106=FACE_OUTER_BOUND('',#157,.T.);
#107=FACE_OUTER_BOUND('',#159,.T.);
#108=FACE_OUTER_BOUND('',#161,.T.);
#109=FACE_OUTER_BOUND('',#162,.T.);
#110=FACE_OUTER_BOUND('',#163,.T.);
#111=EDGE_LOOP('',(#257));
#112=EDGE_LOOP('',(#258));
#113=EDGE_LOOP('',(#259));
#114=EDGE_LOOP('',(#260));
#115=EDGE_LOOP('',(#261));
#116=EDGE_LOOP('',(#262));
#117=EDGE_LOOP('',(#263));
#118=EDGE_LOOP('',(#264));
#119=EDGE_LOOP('',(#265));
#120=EDGE_LOOP('',(#266));
#121=EDGE_LOOP('',(#267));
#122=EDGE_LOOP('',(#268));
#123=EDGE_LOOP('',(#269,#270,#271,#272));
#124=EDGE_LOOP('',(#273));
#125=EDGE_LOOP('',(#274));
#126=EDGE_LOOP('',(#275));
#127=EDGE_LOOP('',(#276));
#128=EDGE_LOOP('',(#277));
#129=EDGE_LOOP('',(#278));
#130=EDGE_LOOP('',(#279));
#131=EDGE_LOOP('',(#280));
#132=EDGE_LOOP('',(#281));
#133=EDGE_LOOP('',(#282));
#134=EDGE_LOOP('',(#283));
#135=EDGE_LOOP('',(#284));
#136=EDGE_LOOP('',(#285));
#137=EDGE_LOOP('',(#286));
#138=EDGE_LOOP('',(#287));
#139=EDGE_LOOP('',(#288));
#140=EDGE_LOOP('',(#289));
#141=EDGE_LOOP('',(#290));
#142=EDGE_LOOP('',(#291,#292,#293,#294));
#143=EDGE_LOOP('',(#295));
#144=EDGE_LOOP('',(#296));
#145=EDGE_LOOP('',(#297));
#146=EDGE_LOOP('',(#298,#299,#300,#301));
#147=EDGE_LOOP('',(#302));
#148=EDGE_LOOP('',(#303));
#149=EDGE_LOOP('',(#304));
#150=EDGE_LOOP('',(#305));
#151=EDGE_LOOP('',(#306));
#152=EDGE_LOOP('',(#307));
#153=EDGE_LOOP('',(#308));
#154=EDGE_LOOP('',(#309));
#155=EDGE_LOOP('',(#310));
#156=EDGE_LOOP('',(#311));
#157=EDGE_LOOP('',(#312));
#158=EDGE_LOOP('',(#313));
#159=EDGE_LOOP('',(#314));
#160=EDGE_LOOP('',(#315));
#161=EDGE_LOOP('',(#316,#317,#318,#319));
#162=EDGE_LOOP('',(#320,#321,#322,#323));
#163=EDGE_LOOP('',(#324,#325,#326,#327));
#164=EDGE_LOOP('',(#328));
#165=CIRCLE('',#388,10.5);
#166=CIRCLE('',#389,10.5);
#167=CIRCLE('',#391,13.);
#168=CIRCLE('',#393,10.);
#169=CIRCLE('',#395,10.);
#170=CIRCLE('',#397,13.);
#171=CIRCLE('',#399,5.5);
#172=CIRCLE('',#400,6.);
#173=CIRCLE('',#402,6.);
#174=CIRCLE('',#404,5.5);
#175=CIRCLE('',#406,5.5);
#176=CIRCLE('',#408,5.5);
#177=CIRCLE('',#410,15.5);
#178=CIRCLE('',#411,16.);
#179=CIRCLE('',#413,10.5);
#180=CIRCLE('',#415,16.);
#181=CIRCLE('',#418,13.5);
#182=CIRCLE('',#419,14.);
#183=CIRCLE('',#422,9.);
#184=CIRCLE('',#423,9.5);
#185=CIRCLE('',#425,9.5);
#186=CIRCLE('',#427,9.);
#187=CIRCLE('',#429,9.);
#188=CIRCLE('',#431,9.);
#189=VERTEX_POINT('',#556);
#190=VERTEX_POINT('',#558);
#191=VERTEX_POINT('',#561);
#192=VERTEX_POINT('',#564);
#193=VERTEX_POINT('',#567);
#194=VERTEX_POINT('',#570);
#195=VERTEX_POINT('',#573);
#196=VERTEX_POINT('',#575);
#197=VERTEX_POINT('',#578);
#198=VERTEX_POINT('',#579);
#199=VERTEX_POINT('',#581);
#200=VERTEX_POINT('',#583);
#201=VERTEX_POINT('',#586);
#202=VERTEX_POINT('',#589);
#203=VERTEX_POINT('',#592);
#204=VERTEX_POINT('',#595);
#205=VERTEX_POINT('',#598);
#206=VERTEX_POINT('',#600);
#207=VERTEX_POINT('',#603);
#208=VERTEX_POINT('',#606);
#209=VERTEX_POINT('',#610);
#210=VERTEX_POINT('',#612);
#211=VERTEX_POINT('',#615);
#212=VERTEX_POINT('',#617);
#213=VERTEX_POINT('',#621);
#214=VERTEX_POINT('',#623);
#215=VERTEX_POINT('',#626);
#216=VERTEX_POINT('',#627);
#217=VERTEX_POINT('',#631);
#218=VERTEX_POINT('',#634);
#219=VERTEX_POINT('',#637);
#220=VERTEX_POINT('',#640);
#221=EDGE_CURVE('',#189,#189,#165,.T.);
#222=EDGE_CURVE('',#190,#190,#166,.T.);
#223=EDGE_CURVE('',#191,#191,#167,.T.);
#224=EDGE_CURVE('',#192,#192,#168,.T.);
#225=EDGE_CURVE('',#193,#193,#169,.T.);
#226=EDGE_CURVE('',#194,#194,#170,.T.);
#227=EDGE_CURVE('',#195,#195,#171,.T.);
#228=EDGE_CURVE('',#196,#196,#172,.T.);
#229=EDGE_CURVE('',#197,#198,#14,.T.);
#230=EDGE_CURVE('',#199,#198,#15,.T.);
#231=EDGE_CURVE('',#200,#199,#16,.T.);
#232=EDGE_CURVE('',#200,#197,#17,.T.);
#233=EDGE_CURVE('',#201,#201,#173,.T.);
#234=EDGE_CURVE('',#202,#202,#174,.T.);
#235=EDGE_CURVE('',#203,#203,#175,.T.);
#236=EDGE_CURVE('',#204,#204,#176,.T.);
#237=EDGE_CURVE('',#205,#205,#177,.T.);
#238=EDGE_CURVE('',#206,#206,#178,.T.);
#239=EDGE_CURVE('',#207,#207,#179,.T.);
#240=EDGE_CURVE('',#208,#208,#180,.T.);
#241=EDGE_CURVE('',#209,#209,#181,.T.);
#242=EDGE_CURVE('',#210,#210,#182,.T.);
#243=EDGE_CURVE('',#199,#211,#18,.T.);
#244=EDGE_CURVE('',#211,#212,#19,.T.);
#245=EDGE_CURVE('',#212,#200,#20,.T.);
#246=EDGE_CURVE('',#213,#213,#183,.T.);
#247=EDGE_CURVE('',#214,#214,#184,.T.);
#248=EDGE_CURVE('',#215,#216,#21,.T.);
#249=EDGE_CURVE('',#212,#216,#22,.T.);
#250=EDGE_CURVE('',#211,#215,#23,.T.);
#251=EDGE_CURVE('',#217,#217,#185,.T.);
#252=EDGE_CURVE('',#218,#218,#186,.T.);
#253=EDGE_CURVE('',#219,#219,#187,.T.);
#254=EDGE_CURVE('',#220,#220,#188,.T.);
#255=EDGE_CURVE('',#198,#215,#24,.T.);
#256=EDGE_CURVE('',#216,#197,#25,.T.);
#257=ORIENTED_EDGE('',*,*,#221,.T.);
#258=ORIENTED_EDGE('',*,*,#222,.F.);
#259=ORIENTED_EDGE('',*,*,#223,.F.);
#260=ORIENTED_EDGE('',*,*,#221,.F.);
#261=ORIENTED_EDGE('',*,*,#224,.T.);
#262=ORIENTED_EDGE('',*,*,#222,.T.);
#263=ORIENTED_EDGE('',*,*,#225,.F.);
#264=ORIENTED_EDGE('',*,*,#224,.F.);
#265=ORIENTED_EDGE('',*,*,#223,.T.);
#266=ORIENTED_EDGE('',*,*,#226,.T.);
#267=ORIENTED_EDGE('',*,*,#227,.T.);
#268=ORIENTED_EDGE('',*,*,#228,.T.);
#269=ORIENTED_EDGE('',*,*,#229,.T.);
#270=ORIENTED_EDGE('',*,*,#230,.F.);
#271=ORIENTED_EDGE('',*,*,#231,.F.);
#272=ORIENTED_EDGE('',*,*,#232,.T.);
#273=ORIENTED_EDGE('',*,*,#233,.F.);
#274=ORIENTED_EDGE('',*,*,#228,.F.);
#275=ORIENTED_EDGE('',*,*,#234,.T.);
#276=ORIENTED_EDGE('',*,*,#227,.F.);
#277=ORIENTED_EDGE('',*,*,#235,.T.);
#278=ORIENTED_EDGE('',*,*,#233,.T.);
#279=ORIENTED_EDGE('',*,*,#236,.F.);
#280=ORIENTED_EDGE('',*,*,#235,.F.);
#281=ORIENTED_EDGE('',*,*,#237,.T.);
#282=ORIENTED_EDGE('',*,*,#238,.T.);
#283=ORIENTED_EDGE('',*,*,#237,.F.);
#284=ORIENTED_EDGE('',*,*,#239,.F.);
#285=ORIENTED_EDGE('',*,*,#240,.F.);
#286=ORIENTED_EDGE('',*,*,#238,.F.);
#287=ORIENTED_EDGE('',*,*,#225,.T.);
#288=ORIENTED_EDGE('',*,*,#239,.T.);
#289=ORIENTED_EDGE('',*,*,#241,.F.);
#290=ORIENTED_EDGE('',*,*,#242,.T.);
#291=ORIENTED_EDGE('',*,*,#231,.T.);
#292=ORIENTED_EDGE('',*,*,#243,.T.);
#293=ORIENTED_EDGE('',*,*,#244,.T.);
#294=ORIENTED_EDGE('',*,*,#245,.T.);
#295=ORIENTED_EDGE('',*,*,#242,.F.);
#296=ORIENTED_EDGE('',*,*,#246,.T.);
#297=ORIENTED_EDGE('',*,*,#247,.T.);
#298=ORIENTED_EDGE('',*,*,#248,.T.);
#299=ORIENTED_EDGE('',*,*,#249,.F.);
#300=ORIENTED_EDGE('',*,*,#244,.F.);
#301=ORIENTED_EDGE('',*,*,#250,.T.);
#302=ORIENTED_EDGE('',*,*,#251,.F.);
#303=ORIENTED_EDGE('',*,*,#247,.F.);
#304=ORIENTED_EDGE('',*,*,#252,.F.);
#305=ORIENTED_EDGE('',*,*,#246,.F.);
#306=ORIENTED_EDGE('',*,*,#253,.T.);
#307=ORIENTED_EDGE('',*,*,#251,.T.);
#308=ORIENTED_EDGE('',*,*,#254,.T.);
#309=ORIENTED_EDGE('',*,*,#253,.F.);
#310=ORIENTED_EDGE('',*,*,#241,.T.);
#311=ORIENTED_EDGE('',*,*,#226,.F.);
#312=ORIENTED_EDGE('',*,*,#254,.F.);
#313=ORIENTED_EDGE('',*,*,#236,.T.);
#314=ORIENTED_EDGE('',*,*,#252,.T.);
#315=ORIENTED_EDGE('',*,*,#234,.F.);
#316=ORIENTED_EDGE('',*,*,#255,.T.);
#317=ORIENTED_EDGE('',*,*,#250,.F.);
#318=ORIENTED_EDGE('',*,*,#243,.F.);
#319=ORIENTED_EDGE('',*,*,#230,.T.);
#320=ORIENTED_EDGE('',*,*,#256,.T.);
#321=ORIENTED_EDGE('',*,*,#232,.F.);
#322=ORIENTED_EDGE('',*,*,#245,.F.);
#323=ORIENTED_EDGE('',*,*,#249,.T.);
#324=ORIENTED_EDGE('',*,*,#255,.F.);
#325=ORIENTED_EDGE('',*,*,#229,.F.);
#326=ORIENTED_EDGE('',*,*,#256,.F.);
#327=ORIENTED_EDGE('',*,*,#248,.F.);
#328=ORIENTED_EDGE('',*,*,#240,.T.);
#329=CYLINDRICAL_SURFACE('',#387,10.5);
#330=CYLINDRICAL_SURFACE('',#394,10.);
#331=CYLINDRICAL_SURFACE('',#396,13.);
#332=CYLINDRICAL_SURFACE('',#403,5.5);
#333=CYLINDRICAL_SURFACE('',#407,5.5);
#334=CYLINDRICAL_SURFACE('',#414,16.);
#335=CYLINDRICAL_SURFACE('',#426,9.);
#336=CYLINDRICAL_SURFACE('',#430,9.);
#337=STYLED_ITEM('',(#672),#358);
#338=STYLED_ITEM('',(#673),#363);
#339=STYLED_ITEM('',(#673),#364);
#340=STYLED_ITEM('',(#673),#365);
#341=STYLED_ITEM('',(#673),#366);
#342=STYLED_ITEM('',(#673),#367);
#343=STYLED_ITEM('',(#673),#368);
#344=STYLED_ITEM('',(#673),#371);
#345=STYLED_ITEM('',(#673),#372);
#346=STYLED_ITEM('',(#673),#373);
#347=STYLED_ITEM('',(#673),#374);
#348=STYLED_ITEM('',(#673),#375);
#349=STYLED_ITEM('',(#673),#376);
#350=STYLED_ITEM('',(#673),#377);
#351=STYLED_ITEM('',(#673),#378);
#352=STYLED_ITEM('',(#673),#380);
#353=STYLED_ITEM('',(#673),#381);
#354=STYLED_ITEM('',(#673),#382);
#355=STYLED_ITEM('',(#673),#383);
#356=STYLED_ITEM('',(#673),#384);
#357=STYLED_ITEM('',(#671),#13);
#358=ADVANCED_FACE('',(#84,#57),#329,.T.);
#359=ADVANCED_FACE('',(#85,#58),#46,.F.);
#360=ADVANCED_FACE('',(#86,#59),#38,.F.);
#361=ADVANCED_FACE('',(#87,#60),#330,.F.);
#362=ADVANCED_FACE('',(#88,#61),#331,.T.);
#363=ADVANCED_FACE('',(#89,#62),#39,.F.);
#364=ADVANCED_FACE('',(#90,#63,#64),#47,.T.);
#365=ADVANCED_FACE('',(#91,#65),#332,.F.);
#366=ADVANCED_FACE('',(#92,#66),#40,.F.);
#367=ADVANCED_FACE('',(#93,#67),#333,.F.);
#368=ADVANCED_FACE('',(#94,#68),#41,.T.);
#369=ADVANCED_FACE('',(#95,#69),#48,.T.);
#370=ADVANCED_FACE('',(#96,#70),#334,.T.);
#371=ADVANCED_FACE('',(#97,#71),#42,.F.);
#372=ADVANCED_FACE('',(#98,#72),#43,.F.);
#373=ADVANCED_FACE('',(#99,#73),#49,.T.);
#374=ADVANCED_FACE('',(#100,#74),#44,.F.);
#375=ADVANCED_FACE('',(#101,#75,#76),#50,.T.);
#376=ADVANCED_FACE('',(#102,#77),#335,.F.);
#377=ADVANCED_FACE('',(#103,#78),#45,.F.);
#378=ADVANCED_FACE('',(#104,#79),#336,.F.);
#379=ADVANCED_FACE('',(#105,#80),#51,.F.);
#380=ADVANCED_FACE('',(#106,#81),#52,.F.);
#381=ADVANCED_FACE('',(#107,#82),#53,.T.);
#382=ADVANCED_FACE('',(#108),#54,.T.);
#383=ADVANCED_FACE('',(#109),#55,.T.);
#384=ADVANCED_FACE('',(#110,#83),#56,.F.);
#385=CLOSED_SHELL('',(#358,#359,#360,#361,#362,#363,#364,#365,#366,#367,
#368,#369,#370,#371,#372,#373,#374,#375,#376,#377,#378,#379,#380,#381,#382,
#383,#384));
#386=AXIS2_PLACEMENT_3D('placement',#554,#438,#439);
#387=AXIS2_PLACEMENT_3D('',#555,#440,#441);
#388=AXIS2_PLACEMENT_3D('',#557,#442,#443);
#389=AXIS2_PLACEMENT_3D('',#559,#444,#445);
#390=AXIS2_PLACEMENT_3D('',#560,#446,#447);
#391=AXIS2_PLACEMENT_3D('',#562,#448,#449);
#392=AXIS2_PLACEMENT_3D('',#563,#450,#451);
#393=AXIS2_PLACEMENT_3D('',#565,#452,#453);
#394=AXIS2_PLACEMENT_3D('',#566,#454,#455);
#395=AXIS2_PLACEMENT_3D('',#568,#456,#457);
#396=AXIS2_PLACEMENT_3D('',#569,#458,#459);
#397=AXIS2_PLACEMENT_3D('',#571,#460,#461);
#398=AXIS2_PLACEMENT_3D('',#572,#462,#463);
#399=AXIS2_PLACEMENT_3D('',#574,#464,#465);
#400=AXIS2_PLACEMENT_3D('',#576,#466,#467);
#401=AXIS2_PLACEMENT_3D('',#577,#468,#469);
#402=AXIS2_PLACEMENT_3D('',#587,#474,#475);
#403=AXIS2_PLACEMENT_3D('',#588,#476,#477);
#404=AXIS2_PLACEMENT_3D('',#590,#478,#479);
#405=AXIS2_PLACEMENT_3D('',#591,#480,#481);
#406=AXIS2_PLACEMENT_3D('',#593,#482,#483);
#407=AXIS2_PLACEMENT_3D('',#594,#484,#485);
#408=AXIS2_PLACEMENT_3D('',#596,#486,#487);
#409=AXIS2_PLACEMENT_3D('',#597,#488,#489);
#410=AXIS2_PLACEMENT_3D('',#599,#490,#491);
#411=AXIS2_PLACEMENT_3D('',#601,#492,#493);
#412=AXIS2_PLACEMENT_3D('',#602,#494,#495);
#413=AXIS2_PLACEMENT_3D('',#604,#496,#497);
#414=AXIS2_PLACEMENT_3D('',#605,#498,#499);
#415=AXIS2_PLACEMENT_3D('',#607,#500,#501);
#416=AXIS2_PLACEMENT_3D('',#608,#502,#503);
#417=AXIS2_PLACEMENT_3D('',#609,#504,#505);
#418=AXIS2_PLACEMENT_3D('',#611,#506,#507);
#419=AXIS2_PLACEMENT_3D('',#613,#508,#509);
#420=AXIS2_PLACEMENT_3D('',#614,#510,#511);
#421=AXIS2_PLACEMENT_3D('',#620,#515,#516);
#422=AXIS2_PLACEMENT_3D('',#622,#517,#518);
#423=AXIS2_PLACEMENT_3D('',#624,#519,#520);
#424=AXIS2_PLACEMENT_3D('',#625,#521,#522);
#425=AXIS2_PLACEMENT_3D('',#632,#526,#527);
#426=AXIS2_PLACEMENT_3D('',#633,#528,#529);
#427=AXIS2_PLACEMENT_3D('',#635,#530,#531);
#428=AXIS2_PLACEMENT_3D('',#636,#532,#533);
#429=AXIS2_PLACEMENT_3D('',#638,#534,#535);
#430=AXIS2_PLACEMENT_3D('',#639,#536,#537);
#431=AXIS2_PLACEMENT_3D('',#641,#538,#539);
#432=AXIS2_PLACEMENT_3D('',#642,#540,#541);
#433=AXIS2_PLACEMENT_3D('',#643,#542,#543);
#434=AXIS2_PLACEMENT_3D('',#644,#544,#545);
#435=AXIS2_PLACEMENT_3D('',#645,#546,#547);
#436=AXIS2_PLACEMENT_3D('',#647,#549,#550);
#437=AXIS2_PLACEMENT_3D('',#649,#552,#553);
#438=DIRECTION('axis',(0.,0.,1.));
#439=DIRECTION('refdir',(1.,0.,0.));
#440=DIRECTION('center_axis',(0.,0.,-1.));
#441=DIRECTION('ref_axis',(-1.,0.,0.));
#442=DIRECTION('center_axis',(0.,0.,1.));
#443=DIRECTION('ref_axis',(-1.,0.,0.));
#444=DIRECTION('center_axis',(0.,0.,1.));
#445=DIRECTION('ref_axis',(3.33066907387547E-16,-1.,0.));
#446=DIRECTION('center_axis',(0.,0.,-1.));
#447=DIRECTION('ref_axis',(-1.,0.,0.));
#448=DIRECTION('center_axis',(0.,0.,-1.));
#449=DIRECTION('ref_axis',(-1.,0.,0.));
#450=DIRECTION('center_axis',(0.,0.,1.));
#451=DIRECTION('ref_axis',(3.33066907387547E-16,-1.,0.));
#452=DIRECTION('center_axis',(0.,0.,-1.));
#453=DIRECTION('ref_axis',(3.33066907387547E-16,-1.,0.));
#454=DIRECTION('center_axis',(0.,0.,1.));
#455=DIRECTION('ref_axis',(3.33066907387547E-16,-1.,0.));
#456=DIRECTION('center_axis',(0.,0.,1.));
#457=DIRECTION('ref_axis',(-3.33066907387547E-16,1.,0.));
#458=DIRECTION('center_axis',(0.,0.,-1.));
#459=DIRECTION('ref_axis',(-1.,0.,0.));
#460=DIRECTION('center_axis',(0.,0.,1.));
#461=DIRECTION('ref_axis',(-1.,0.,0.));
#462=DIRECTION('center_axis',(0.,-1.,0.));
#463=DIRECTION('ref_axis',(1.,4.90131903847895E-17,0.));
#464=DIRECTION('center_axis',(0.,1.,0.));
#465=DIRECTION('ref_axis',(1.,1.02482125350014E-16,0.));
#466=DIRECTION('center_axis',(0.,-1.,0.));
#467=DIRECTION('ref_axis',(1.,0.,0.));
#468=DIRECTION('center_axis',(0.,-1.,0.));
#469=DIRECTION('ref_axis',(0.,0.,-1.));
#470=DIRECTION('',(1.,0.,0.));
#471=DIRECTION('',(0.,0.,-1.));
#472=DIRECTION('',(1.,0.,0.));
#473=DIRECTION('',(0.,0.,-1.));
#474=DIRECTION('center_axis',(0.,-1.,0.));
#475=DIRECTION('ref_axis',(-1.,0.,0.));
#476=DIRECTION('center_axis',(-1.02482125350014E-16,1.,0.));
#477=DIRECTION('ref_axis',(1.,1.02482125350014E-16,0.));
#478=DIRECTION('center_axis',(-1.02482125350014E-16,1.,0.));
#479=DIRECTION('ref_axis',(1.,1.02482125350014E-16,0.));
#480=DIRECTION('center_axis',(0.,-1.,0.));
#481=DIRECTION('ref_axis',(-1.,-2.69572547116342E-16,0.));
#482=DIRECTION('center_axis',(0.,1.,0.));
#483=DIRECTION('ref_axis',(-1.,-5.6365168942508E-16,0.));
#484=DIRECTION('center_axis',(5.63651689425079E-16,-1.,0.));
#485=DIRECTION('ref_axis',(-1.,-5.6365168942508E-16,0.));
#486=DIRECTION('center_axis',(5.63651689425079E-16,-1.,0.));
#487=DIRECTION('ref_axis',(-1.,-5.6365168942508E-16,0.));
#488=DIRECTION('center_axis',(0.,0.,1.));
#489=DIRECTION('ref_axis',(-3.33066907387547E-16,1.,0.));
#490=DIRECTION('center_axis',(0.,0.,1.));
#491=DIRECTION('ref_axis',(-3.33066907387547E-16,1.,0.));
#492=DIRECTION('center_axis',(0.,0.,-1.));
#493=DIRECTION('ref_axis',(-3.33066907387547E-16,1.,0.));
#494=DIRECTION('center_axis',(0.,0.,-1.));
#495=DIRECTION('ref_axis',(-1.,0.,0.));
#496=DIRECTION('center_axis',(0.,0.,-1.));
#497=DIRECTION('ref_axis',(-3.33066907387547E-16,1.,0.));
#498=DIRECTION('center_axis',(0.,0.,1.));
#499=DIRECTION('ref_axis',(3.33066907387547E-16,-1.,0.));
#500=DIRECTION('center_axis',(0.,0.,1.));
#501=DIRECTION('ref_axis',(3.33066907387547E-16,-1.,0.));
#502=DIRECTION('center_axis',(0.,0.,-1.));
#503=DIRECTION('ref_axis',(-3.33066907387547E-16,1.,0.));
#504=DIRECTION('center_axis',(0.,0.,1.));
#505=DIRECTION('ref_axis',(-1.,0.,0.));
#506=DIRECTION('center_axis',(0.,0.,1.));
#507=DIRECTION('ref_axis',(-1.,0.,0.));
#508=DIRECTION('center_axis',(0.,0.,1.));
#509=DIRECTION('ref_axis',(-1.,0.,0.));
#510=DIRECTION('center_axis',(0.,0.,1.));
#511=DIRECTION('ref_axis',(1.,0.,0.));
#512=DIRECTION('',(-3.33066907387547E-16,1.,0.));
#513=DIRECTION('',(-1.,-1.02482125350014E-16,0.));
#514=DIRECTION('',(2.22044604925031E-16,-1.,0.));
#515=DIRECTION('center_axis',(0.,1.,0.));
#516=DIRECTION('ref_axis',(-1.,-1.02482125350014E-16,0.));
#517=DIRECTION('center_axis',(1.02482125350014E-16,-1.,0.));
#518=DIRECTION('ref_axis',(-1.,-1.02482125350014E-16,0.));
#519=DIRECTION('center_axis',(-1.02482125350014E-16,1.,0.));
#520=DIRECTION('ref_axis',(-1.,-1.02482125350014E-16,0.));
#521=DIRECTION('center_axis',(-1.02482125350014E-16,1.,0.));
#522=DIRECTION('ref_axis',(0.,0.,1.));
#523=DIRECTION('',(-1.,-1.02482125350014E-16,0.));
#524=DIRECTION('',(0.,0.,-1.));
#525=DIRECTION('',(0.,0.,-1.));
#526=DIRECTION('center_axis',(-1.02482125350014E-16,1.,0.));
#527=DIRECTION('ref_axis',(1.,1.02482125350014E-16,0.));
#528=DIRECTION('center_axis',(-1.02482125350014E-16,1.,0.));
#529=DIRECTION('ref_axis',(1.,1.02482125350014E-16,0.));
#530=DIRECTION('center_axis',(-1.02482125350014E-16,1.,0.));
#531=DIRECTION('ref_axis',(1.,1.02482125350014E-16,0.));
#532=DIRECTION('center_axis',(0.,1.,0.));
#533=DIRECTION('ref_axis',(1.,3.26834886251397E-16,0.));
#534=DIRECTION('center_axis',(1.02482125350014E-16,-1.,0.));
#535=DIRECTION('ref_axis',(1.,5.6365168942508E-16,0.));
#536=DIRECTION('center_axis',(5.63651689425079E-16,-1.,0.));
#537=DIRECTION('ref_axis',(-1.,-5.6365168942508E-16,0.));
#538=DIRECTION('center_axis',(5.63651689425079E-16,-1.,0.));
#539=DIRECTION('ref_axis',(-1.,-5.6365168942508E-16,0.));
#540=DIRECTION('center_axis',(0.,0.,-1.));
#541=DIRECTION('ref_axis',(-1.,0.,0.));
#542=DIRECTION('center_axis',(5.63651689425079E-16,-1.,0.));
#543=DIRECTION('ref_axis',(-1.,-5.32907051820075E-16,0.));
#544=DIRECTION('center_axis',(-1.02482125350014E-16,1.,0.));
#545=DIRECTION('ref_axis',(1.,1.77635683940025E-16,0.));
#546=DIRECTION('center_axis',(1.,3.33066907387547E-16,0.));
#547=DIRECTION('ref_axis',(0.,0.,-1.));
#548=DIRECTION('',(-3.33066907387547E-16,1.,0.));
#549=DIRECTION('center_axis',(-1.,-2.22044604925031E-16,0.));
#550=DIRECTION('ref_axis',(0.,0.,1.));
#551=DIRECTION('',(2.22044604925031E-16,-1.,0.));
#552=DIRECTION('center_axis',(0.,0.,1.));
#553=DIRECTION('ref_axis',(1.,0.,0.));
#554=CARTESIAN_POINT('',(0.,0.,0.));
#555=CARTESIAN_POINT('Origin',(2.22044604925031E-15,0.,0.));
#556=CARTESIAN_POINT('',(10.5,1.28587913910472E-15,-0.05));
#557=CARTESIAN_POINT('Origin',(2.22044604925031E-15,0.,-0.05));
#558=CARTESIAN_POINT('',(-2.56263561742366E-15,10.5,0.));
#559=CARTESIAN_POINT('Origin',(2.22044604925031E-15,0.,0.));
#560=CARTESIAN_POINT('Origin',(0.,0.,-0.05));
#561=CARTESIAN_POINT('',(13.,1.59204083889156E-15,-0.05));
#562=CARTESIAN_POINT('Origin',(0.,0.,-0.05));
#563=CARTESIAN_POINT('Origin',(2.22044604925031E-15,0.,-0.25));
#564=CARTESIAN_POINT('',(1.14423774522191E-16,10.,-0.5));
#565=CARTESIAN_POINT('Origin',(2.22044604925031E-15,0.,-0.5));
#566=CARTESIAN_POINT('Origin',(2.22044604925031E-15,0.,-11.5));
#567=CARTESIAN_POINT('',(6.77572147694815E-15,-10.,-22.5));
#568=CARTESIAN_POINT('Origin',(2.22044604925031E-15,0.,-22.5));
#569=CARTESIAN_POINT('Origin',(0.,0.,0.));
#570=CARTESIAN_POINT('',(13.,1.59198825996909E-15,-0.5));
#571=CARTESIAN_POINT('Origin',(0.,0.,-0.5));
#572=CARTESIAN_POINT('Origin',(-21.,-19.75,-10.));
#573=CARTESIAN_POINT('',(-26.5,-19.5,-10.));
#574=CARTESIAN_POINT('Origin',(-21.,-19.5,-10.));
#575=CARTESIAN_POINT('',(-27.,-20.,-10.));
#576=CARTESIAN_POINT('Origin',(-21.,-20.,-10.));
#577=CARTESIAN_POINT('Origin',(-32.5,-20.,0.));
#578=CARTESIAN_POINT('',(-32.5,-20.,-20.));
#579=CARTESIAN_POINT('',(32.5,-20.,-20.));
#580=CARTESIAN_POINT('',(-32.5,-20.,-20.));
#581=CARTESIAN_POINT('',(32.5,-20.,0.));
#582=CARTESIAN_POINT('',(32.5,-20.,0.));
#583=CARTESIAN_POINT('',(-32.5,-20.,0.));
#584=CARTESIAN_POINT('',(-32.5,-20.,0.));
#585=CARTESIAN_POINT('',(-32.5,-20.,0.));
#586=CARTESIAN_POINT('',(27.,-20.,-10.));
#587=CARTESIAN_POINT('Origin',(21.,-20.,-10.));
#588=CARTESIAN_POINT('Origin',(-21.,-58.8986691902975,-10.));
#589=CARTESIAN_POINT('',(-26.5,8.99999999999999,-10.));
#590=CARTESIAN_POINT('Origin',(-21.,8.99999999999999,-10.));
#591=CARTESIAN_POINT('Origin',(21.,-19.75,-10.));
#592=CARTESIAN_POINT('',(26.5,-19.4999999999999,-10.));
#593=CARTESIAN_POINT('Origin',(21.,-19.4999999999999,-10.));
#594=CARTESIAN_POINT('Origin',(21.,-58.8986691902975,-10.));
#595=CARTESIAN_POINT('',(26.5,9.00000000000001,-10.));
#596=CARTESIAN_POINT('Origin',(21.,9.00000000000001,-10.));
#597=CARTESIAN_POINT('Origin',(2.22044604925031E-15,0.,-22.75));
#598=CARTESIAN_POINT('',(9.28112296218197E-15,-15.5,-23.));
#599=CARTESIAN_POINT('Origin',(2.22044604925031E-15,0.,-23.));
#600=CARTESIAN_POINT('',(5.59014640133526E-15,-16.,-22.5));
#601=CARTESIAN_POINT('Origin',(2.22044604925031E-15,0.,-22.5));
#602=CARTESIAN_POINT('Origin',(6.55031584528842E-15,-13.,-23.));
#603=CARTESIAN_POINT('',(4.43181190530605E-15,-10.5,-23.));
#604=CARTESIAN_POINT('Origin',(2.22044604925031E-15,0.,-23.));
#605=CARTESIAN_POINT('Origin',(2.22044604925031E-15,0.,-21.5));
#606=CARTESIAN_POINT('',(7.54951656745106E-15,-16.,-20.));
#607=CARTESIAN_POINT('Origin',(2.22044604925031E-15,0.,-20.));
#608=CARTESIAN_POINT('Origin',(2.22044604925031E-15,0.,-22.75));
#609=CARTESIAN_POINT('Origin',(0.,0.,-0.25));
#610=CARTESIAN_POINT('',(13.5,1.65321857766021E-15,-0.5));
#611=CARTESIAN_POINT('Origin',(0.,0.,-0.5));
#612=CARTESIAN_POINT('',(14.,1.71444889535133E-15,0.));
#613=CARTESIAN_POINT('Origin',(0.,0.,0.));
#614=CARTESIAN_POINT('Origin',(1.11022302462516E-15,-6.67095046831046E-15,
0.));
#615=CARTESIAN_POINT('',(32.5,20.,0.));
#616=CARTESIAN_POINT('',(32.5,-20.,0.));
#617=CARTESIAN_POINT('',(-32.5,20.,0.));
#618=CARTESIAN_POINT('',(32.5,20.,0.));
#619=CARTESIAN_POINT('',(-32.5,20.,0.));
#620=CARTESIAN_POINT('Origin',(-21.,19.75,-10.));
#621=CARTESIAN_POINT('',(-12.,19.5,-10.));
#622=CARTESIAN_POINT('Origin',(-21.,19.5,-10.));
#623=CARTESIAN_POINT('',(-11.5,20.,-10.));
#624=CARTESIAN_POINT('Origin',(-21.,20.,-10.));
#625=CARTESIAN_POINT('Origin',(32.5,20.,0.));
#626=CARTESIAN_POINT('',(32.5,20.,-20.));
#627=CARTESIAN_POINT('',(-32.5,20.,-20.));
#628=CARTESIAN_POINT('',(32.5,20.,-20.));
#629=CARTESIAN_POINT('',(-32.5,20.,0.));
#630=CARTESIAN_POINT('',(32.5,20.,0.));
#631=CARTESIAN_POINT('',(11.5,20.,-10.));
#632=CARTESIAN_POINT('Origin',(21.,20.,-10.));
#633=CARTESIAN_POINT('Origin',(-21.,14.5,-10.));
#634=CARTESIAN_POINT('',(-12.,8.99999999999999,-10.));
#635=CARTESIAN_POINT('Origin',(-21.,8.99999999999999,-10.));
#636=CARTESIAN_POINT('Origin',(21.,19.75,-10.));
#637=CARTESIAN_POINT('',(12.,19.5,-10.));
#638=CARTESIAN_POINT('Origin',(21.,19.5,-10.));
#639=CARTESIAN_POINT('Origin',(21.,14.5,-10.));
#640=CARTESIAN_POINT('',(12.,9.,-10.));
#641=CARTESIAN_POINT('Origin',(21.,9.,-10.));
#642=CARTESIAN_POINT('Origin',(0.,0.,-0.5));
#643=CARTESIAN_POINT('Origin',(21.,9.,-10.));
#644=CARTESIAN_POINT('Origin',(-21.,8.99999999999999,-10.));
#645=CARTESIAN_POINT('Origin',(32.5,-20.,0.));
#646=CARTESIAN_POINT('',(32.5,-20.,-20.));
#647=CARTESIAN_POINT('Origin',(-32.5,20.,0.));
#648=CARTESIAN_POINT('',(-32.5,20.,-20.));
#649=CARTESIAN_POINT('Origin',(1.11022302462516E-15,-7.01218784817361E-15,
-20.));
#650=UNCERTAINTY_MEASURE_WITH_UNIT(LENGTH_MEASURE(0.01),#654,
'DISTANCE_ACCURACY_VALUE',
'Maximum model space distance between geometric entities at asserted c
onnectivities');
#651=UNCERTAINTY_MEASURE_WITH_UNIT(LENGTH_MEASURE(1.E-6),#654,
'DISTANCE_ACCURACY_VALUE',
'Maximum model space distance between geometric entities at asserted c
onnectivities');
#652=(
GEOMETRIC_REPRESENTATION_CONTEXT(3)
GLOBAL_UNCERTAINTY_ASSIGNED_CONTEXT((#650))
GLOBAL_UNIT_ASSIGNED_CONTEXT((#654,#657,#655))
REPRESENTATION_CONTEXT('','3D')
);
#653=(
GEOMETRIC_REPRESENTATION_CONTEXT(3)
GLOBAL_UNCERTAINTY_ASSIGNED_CONTEXT((#651))
GLOBAL_UNIT_ASSIGNED_CONTEXT((#654,#657,#655))
REPRESENTATION_CONTEXT('','3D')
);
#654=(
LENGTH_UNIT()
NAMED_UNIT(*)
SI_UNIT(.MILLI.,.METRE.)
);
#655=(
NAMED_UNIT(*)
SI_UNIT($,.STERADIAN.)
SOLID_ANGLE_UNIT()
);
#656=DIMENSIONAL_EXPONENTS(0.,0.,0.,0.,0.,0.,0.);
#657=(
CONVERSION_BASED_UNIT('degree',#659)
NAMED_UNIT(#656)
PLANE_ANGLE_UNIT()
);
#658=(
NAMED_UNIT(*)
PLANE_ANGLE_UNIT()
SI_UNIT($,.RADIAN.)
);
#659=PLANE_ANGLE_MEASURE_WITH_UNIT(PLANE_ANGLE_MEASURE(0.01745329252),#658);
#660=SHAPE_DEFINITION_REPRESENTATION(#661,#662);
#661=PRODUCT_DEFINITION_SHAPE('',$,#664);
#662=SHAPE_REPRESENTATION('',(#386),#652);
#663=PRODUCT_DEFINITION_CONTEXT('part definition',#668,'design');
#664=PRODUCT_DEFINITION('CAD_8143','CAD_8143',#665,#663);
#665=PRODUCT_DEFINITION_FORMATION('',$,#670);
#666=PRODUCT_RELATED_PRODUCT_CATEGORY('CAD_8143','CAD_8143',(#670));
#667=APPLICATION_PROTOCOL_DEFINITION('international standard',
'automotive_design',2009,#668);
#668=APPLICATION_CONTEXT(
'Core Data for Automotive Mechanical Design Process');
#669=PRODUCT_CONTEXT('part definition',#668,'mechanical');
#670=PRODUCT('CAD_8143','CAD_8143',$,(#669));
#671=PRESENTATION_STYLE_ASSIGNMENT((#674));
#672=PRESENTATION_STYLE_ASSIGNMENT((#675));
#673=PRESENTATION_STYLE_ASSIGNMENT((#676));
#674=SURFACE_STYLE_USAGE(.BOTH.,#677);
#675=SURFACE_STYLE_USAGE(.BOTH.,#678);
#676=SURFACE_STYLE_USAGE(.BOTH.,#679);
#677=SURFACE_SIDE_STYLE('',(#680));
#678=SURFACE_SIDE_STYLE('',(#681));
#679=SURFACE_SIDE_STYLE('',(#682));
#680=SURFACE_STYLE_FILL_AREA(#683);
#681=SURFACE_STYLE_FILL_AREA(#684);
#682=SURFACE_STYLE_FILL_AREA(#685);
#683=FILL_AREA_STYLE('',(#686));
#684=FILL_AREA_STYLE('',(#687));
#685=FILL_AREA_STYLE('',(#688));
#686=FILL_AREA_STYLE_COLOUR('',#689);
#687=FILL_AREA_STYLE_COLOUR('',#690);
#688=FILL_AREA_STYLE_COLOUR('',#691);
#689=COLOUR_RGB('',0.87843137254902,0.874509803921569,0.858823529411765);
#690=COLOUR_RGB('',0.411764705882353,0.301960784313725,0.231372549019608);
#691=COLOUR_RGB('',0.63921568627451,0.63921568627451,0.686274509803922);
ENDSEC;
END-ISO-10303-21;
