ISO-10303-21;
HEADER;
/* Generated by software containing ST-Developer
 * from STEP Tools, Inc. (www.steptools.com) 
 */

FILE_DESCRIPTION(
/* description */ (''),
/* implementation_level */ '2;1');

FILE_NAME(
/* name */ 'C:\\Users\\Probic\\Desktop\\AAC HYPEX 3D\\izvoz\\CAD_9211.
stp',
/* time_stamp */ '2017-10-24T09:53:28+02:00',
/* author */ ('Hypex'),
/* organization */ ('Hypex'),
/* preprocessor_version */ 'ST-DEVELOPER v16.1',
/* originating_system */ 'Autodesk Inventor 2016',
/* authorisation */ '');

FILE_SCHEMA (('AUTOMOTIVE_DESIGN { 1 0 10303 214 3 1 1 }'));
ENDSEC;

DATA;
#10=MECHANICAL_DESIGN_GEOMETRIC_PRESENTATION_REPRESENTATION('',(#13),#529);
#11=SHAPE_REPRESENTATION_RELATIONSHIP('SRR','None',#538,#12);
#12=ADVANCED_BREP_SHAPE_REPRESENTATION('',(#14),#528);
#13=STYLED_ITEM('',(#547),#14);
#14=MANIFOLD_SOLID_BREP('Solid1',#294);
#15=SPHERICAL_SURFACE('',#332,25.0000000000001);
#16=(
BOUNDED_CURVE()
B_SPLINE_CURVE(2,(#463,#464,#465),.UNSPECIFIED.,.F.,.F.)
B_SPLINE_CURVE_WITH_KNOTS((3,3),(0.,1.9235204005697),.UNSPECIFIED.)
CURVE()
GEOMETRIC_REPRESENTATION_ITEM()
RATIONAL_B_SPLINE_CURVE((1.,1.04315971024707,1.))
REPRESENTATION_ITEM('')
);
#17=(
BOUNDED_CURVE()
B_SPLINE_CURVE(2,(#468,#469,#470),.UNSPECIFIED.,.F.,.F.)
B_SPLINE_CURVE_WITH_KNOTS((3,3),(0.,1.9235204005697),.UNSPECIFIED.)
CURVE()
GEOMETRIC_REPRESENTATION_ITEM()
RATIONAL_B_SPLINE_CURVE((1.,1.04315971024707,1.))
REPRESENTATION_ITEM('')
);
#18=(
BOUNDED_CURVE()
B_SPLINE_CURVE(2,(#476,#477,#478),.UNSPECIFIED.,.F.,.F.)
B_SPLINE_CURVE_WITH_KNOTS((3,3),(0.,1.6138368397258),.UNSPECIFIED.)
CURVE()
GEOMETRIC_REPRESENTATION_ITEM()
RATIONAL_B_SPLINE_CURVE((1.,1.13333333333333,1.))
REPRESENTATION_ITEM('')
);
#19=(
BOUNDED_CURVE()
B_SPLINE_CURVE(2,(#487,#488,#489),.UNSPECIFIED.,.F.,.F.)
B_SPLINE_CURVE_WITH_KNOTS((3,3),(0.,1.6138368397258),.UNSPECIFIED.)
CURVE()
GEOMETRIC_REPRESENTATION_ITEM()
RATIONAL_B_SPLINE_CURVE((1.,1.13333333333333,1.))
REPRESENTATION_ITEM('')
);
#20=(
BOUNDED_CURVE()
B_SPLINE_CURVE(2,(#500,#501,#502),.UNSPECIFIED.,.F.,.F.)
B_SPLINE_CURVE_WITH_KNOTS((3,3),(0.,1.9235204005697),.UNSPECIFIED.)
CURVE()
GEOMETRIC_REPRESENTATION_ITEM()
RATIONAL_B_SPLINE_CURVE((1.,1.04315971024707,1.))
REPRESENTATION_ITEM('')
);
#21=(
BOUNDED_CURVE()
B_SPLINE_CURVE(2,(#505,#506,#507),.UNSPECIFIED.,.F.,.F.)
B_SPLINE_CURVE_WITH_KNOTS((3,3),(0.,1.9235204005697),.UNSPECIFIED.)
CURVE()
GEOMETRIC_REPRESENTATION_ITEM()
RATIONAL_B_SPLINE_CURVE((1.,1.04315971024707,1.))
REPRESENTATION_ITEM('')
);
#22=LINE('',#460,#30);
#23=LINE('',#474,#31);
#24=LINE('',#480,#32);
#25=LINE('',#481,#33);
#26=LINE('',#485,#34);
#27=LINE('',#491,#35);
#28=LINE('',#492,#36);
#29=LINE('',#497,#37);
#30=VECTOR('',#374,20.1246117974981);
#31=VECTOR('',#381,10.);
#32=VECTOR('',#382,10.);
#33=VECTOR('',#383,16.);
#34=VECTOR('',#386,10.);
#35=VECTOR('',#387,10.);
#36=VECTOR('',#388,16.);
#37=VECTOR('',#393,20.1246117974981);
#38=ELLIPSE('',#312,22.9206354091101,13.5);
#39=ELLIPSE('',#318,22.92063540911,13.5);
#40=CONICAL_SURFACE('',#307,4.594,59.);
#41=CONICAL_SURFACE('',#326,17.8074733460998,27.7979246818712);
#42=CONICAL_SURFACE('',#334,17.8074733460998,27.7979246818712);
#43=CONICAL_SURFACE('',#335,15.25,62.2020753181288);
#44=CYLINDRICAL_SURFACE('',#301,9.99999999999999);
#45=CYLINDRICAL_SURFACE('',#309,9.188);
#46=CYLINDRICAL_SURFACE('',#321,17.);
#47=CYLINDRICAL_SURFACE('',#329,13.5);
#48=CYLINDRICAL_SURFACE('',#337,17.);
#49=TOROIDAL_SURFACE('',#299,10.7776615295014,4.26245659161881);
#50=TOROIDAL_SURFACE('',#305,10.7776615295014,4.26245659161881);
#51=FACE_BOUND('',#84,.T.);
#52=FACE_BOUND('',#86,.T.);
#53=FACE_BOUND('',#88,.T.);
#54=FACE_BOUND('',#90,.T.);
#55=FACE_BOUND('',#92,.T.);
#56=FACE_BOUND('',#95,.T.);
#57=FACE_BOUND('',#98,.T.);
#58=FACE_BOUND('',#103,.T.);
#59=FACE_BOUND('',#106,.T.);
#60=FACE_BOUND('',#109,.T.);
#61=FACE_BOUND('',#110,.T.);
#62=FACE_BOUND('',#113,.T.);
#63=FACE_OUTER_BOUND('',#83,.T.);
#64=FACE_OUTER_BOUND('',#85,.T.);
#65=FACE_OUTER_BOUND('',#87,.T.);
#66=FACE_OUTER_BOUND('',#89,.T.);
#67=FACE_OUTER_BOUND('',#91,.T.);
#68=FACE_OUTER_BOUND('',#93,.T.);
#69=FACE_OUTER_BOUND('',#94,.T.);
#70=FACE_OUTER_BOUND('',#96,.T.);
#71=FACE_OUTER_BOUND('',#97,.T.);
#72=FACE_OUTER_BOUND('',#99,.T.);
#73=FACE_OUTER_BOUND('',#100,.T.);
#74=FACE_OUTER_BOUND('',#101,.T.);
#75=FACE_OUTER_BOUND('',#102,.T.);
#76=FACE_OUTER_BOUND('',#104,.T.);
#77=FACE_OUTER_BOUND('',#105,.T.);
#78=FACE_OUTER_BOUND('',#107,.T.);
#79=FACE_OUTER_BOUND('',#108,.T.);
#80=FACE_OUTER_BOUND('',#111,.T.);
#81=FACE_OUTER_BOUND('',#112,.T.);
#82=FACE_OUTER_BOUND('',#114,.T.);
#83=EDGE_LOOP('',(#194));
#84=EDGE_LOOP('',(#195));
#85=EDGE_LOOP('',(#196));
#86=EDGE_LOOP('',(#197));
#87=EDGE_LOOP('',(#198));
#88=EDGE_LOOP('',(#199));
#89=EDGE_LOOP('',(#200));
#90=EDGE_LOOP('',(#201));
#91=EDGE_LOOP('',(#202));
#92=EDGE_LOOP('',(#203));
#93=EDGE_LOOP('',(#204));
#94=EDGE_LOOP('',(#205));
#95=EDGE_LOOP('',(#206));
#96=EDGE_LOOP('',(#207,#208));
#97=EDGE_LOOP('',(#209,#210,#211,#212));
#98=EDGE_LOOP('',(#213));
#99=EDGE_LOOP('',(#214,#215,#216,#217));
#100=EDGE_LOOP('',(#218,#219,#220,#221));
#101=EDGE_LOOP('',(#222,#223));
#102=EDGE_LOOP('',(#224,#225,#226,#227));
#103=EDGE_LOOP('',(#228));
#104=EDGE_LOOP('',(#229,#230,#231,#232));
#105=EDGE_LOOP('',(#233,#234,#235,#236));
#106=EDGE_LOOP('',(#237));
#107=EDGE_LOOP('',(#238,#239,#240,#241));
#108=EDGE_LOOP('',(#242,#243,#244,#245));
#109=EDGE_LOOP('',(#246));
#110=EDGE_LOOP('',(#247,#248,#249,#250));
#111=EDGE_LOOP('',(#251,#252,#253,#254));
#112=EDGE_LOOP('',(#255,#256,#257,#258));
#113=EDGE_LOOP('',(#259));
#114=EDGE_LOOP('',(#260,#261,#262,#263));
#115=CIRCLE('',#297,12.);
#116=CIRCLE('',#298,9.99999999999999);
#117=CIRCLE('',#300,15.);
#118=CIRCLE('',#302,9.99999999999999);
#119=CIRCLE('',#304,12.);
#120=CIRCLE('',#306,15.);
#121=CIRCLE('',#308,9.188);
#122=CIRCLE('',#310,9.188);
#123=CIRCLE('',#314,23.3238075793813);
#124=CIRCLE('',#320,23.3238075793812);
#125=CIRCLE('',#322,17.);
#126=CIRCLE('',#323,17.);
#127=CIRCLE('',#325,17.);
#128=CIRCLE('',#327,22.1149466921997);
#129=CIRCLE('',#328,13.5);
#130=CIRCLE('',#330,13.5);
#131=CIRCLE('',#331,13.5);
#132=CIRCLE('',#333,22.1149466921997);
#133=CIRCLE('',#336,17.);
#134=VERTEX_POINT('',#434);
#135=VERTEX_POINT('',#436);
#136=VERTEX_POINT('',#439);
#137=VERTEX_POINT('',#442);
#138=VERTEX_POINT('',#445);
#139=VERTEX_POINT('',#448);
#140=VERTEX_POINT('',#451);
#141=VERTEX_POINT('',#454);
#142=VERTEX_POINT('',#457);
#143=VERTEX_POINT('',#458);
#144=VERTEX_POINT('',#462);
#145=VERTEX_POINT('',#466);
#146=VERTEX_POINT('',#472);
#147=VERTEX_POINT('',#473);
#148=VERTEX_POINT('',#475);
#149=VERTEX_POINT('',#479);
#150=VERTEX_POINT('',#483);
#151=VERTEX_POINT('',#484);
#152=VERTEX_POINT('',#486);
#153=VERTEX_POINT('',#490);
#154=VERTEX_POINT('',#494);
#155=VERTEX_POINT('',#495);
#156=VERTEX_POINT('',#499);
#157=VERTEX_POINT('',#503);
#158=VERTEX_POINT('',#518);
#159=EDGE_CURVE('',#134,#134,#115,.T.);
#160=EDGE_CURVE('',#135,#135,#116,.T.);
#161=EDGE_CURVE('',#136,#136,#117,.T.);
#162=EDGE_CURVE('',#137,#137,#118,.T.);
#163=EDGE_CURVE('',#138,#138,#119,.T.);
#164=EDGE_CURVE('',#139,#139,#120,.T.);
#165=EDGE_CURVE('',#140,#140,#121,.T.);
#166=EDGE_CURVE('',#141,#141,#122,.T.);
#167=EDGE_CURVE('',#142,#143,#38,.T.);
#168=EDGE_CURVE('',#143,#142,#22,.T.);
#169=EDGE_CURVE('',#144,#142,#16,.T.);
#170=EDGE_CURVE('',#145,#144,#123,.T.);
#171=EDGE_CURVE('',#143,#145,#17,.T.);
#172=EDGE_CURVE('',#146,#147,#23,.T.);
#173=EDGE_CURVE('',#148,#146,#18,.T.);
#174=EDGE_CURVE('',#149,#148,#24,.T.);
#175=EDGE_CURVE('',#147,#149,#25,.T.);
#176=EDGE_CURVE('',#150,#151,#26,.T.);
#177=EDGE_CURVE('',#152,#150,#19,.T.);
#178=EDGE_CURVE('',#153,#152,#27,.T.);
#179=EDGE_CURVE('',#151,#153,#28,.T.);
#180=EDGE_CURVE('',#154,#155,#39,.T.);
#181=EDGE_CURVE('',#154,#155,#29,.T.);
#182=EDGE_CURVE('',#156,#154,#20,.T.);
#183=EDGE_CURVE('',#157,#156,#124,.T.);
#184=EDGE_CURVE('',#155,#157,#21,.T.);
#185=EDGE_CURVE('',#148,#150,#125,.T.);
#186=EDGE_CURVE('',#149,#151,#126,.T.);
#187=EDGE_CURVE('',#153,#147,#127,.T.);
#188=EDGE_CURVE('',#145,#156,#128,.T.);
#189=EDGE_CURVE('',#143,#154,#129,.T.);
#190=EDGE_CURVE('',#155,#142,#130,.T.);
#191=EDGE_CURVE('',#158,#158,#131,.T.);
#192=EDGE_CURVE('',#157,#144,#132,.T.);
#193=EDGE_CURVE('',#152,#146,#133,.T.);
#194=ORIENTED_EDGE('',*,*,#159,.T.);
#195=ORIENTED_EDGE('',*,*,#160,.F.);
#196=ORIENTED_EDGE('',*,*,#161,.F.);
#197=ORIENTED_EDGE('',*,*,#159,.F.);
#198=ORIENTED_EDGE('',*,*,#162,.F.);
#199=ORIENTED_EDGE('',*,*,#160,.T.);
#200=ORIENTED_EDGE('',*,*,#163,.F.);
#201=ORIENTED_EDGE('',*,*,#162,.T.);
#202=ORIENTED_EDGE('',*,*,#164,.F.);
#203=ORIENTED_EDGE('',*,*,#163,.T.);
#204=ORIENTED_EDGE('',*,*,#165,.T.);
#205=ORIENTED_EDGE('',*,*,#166,.F.);
#206=ORIENTED_EDGE('',*,*,#165,.F.);
#207=ORIENTED_EDGE('',*,*,#167,.F.);
#208=ORIENTED_EDGE('',*,*,#168,.F.);
#209=ORIENTED_EDGE('',*,*,#169,.F.);
#210=ORIENTED_EDGE('',*,*,#170,.F.);
#211=ORIENTED_EDGE('',*,*,#171,.F.);
#212=ORIENTED_EDGE('',*,*,#168,.T.);
#213=ORIENTED_EDGE('',*,*,#161,.T.);
#214=ORIENTED_EDGE('',*,*,#172,.F.);
#215=ORIENTED_EDGE('',*,*,#173,.F.);
#216=ORIENTED_EDGE('',*,*,#174,.F.);
#217=ORIENTED_EDGE('',*,*,#175,.F.);
#218=ORIENTED_EDGE('',*,*,#176,.F.);
#219=ORIENTED_EDGE('',*,*,#177,.F.);
#220=ORIENTED_EDGE('',*,*,#178,.F.);
#221=ORIENTED_EDGE('',*,*,#179,.F.);
#222=ORIENTED_EDGE('',*,*,#180,.F.);
#223=ORIENTED_EDGE('',*,*,#181,.T.);
#224=ORIENTED_EDGE('',*,*,#182,.F.);
#225=ORIENTED_EDGE('',*,*,#183,.F.);
#226=ORIENTED_EDGE('',*,*,#184,.F.);
#227=ORIENTED_EDGE('',*,*,#181,.F.);
#228=ORIENTED_EDGE('',*,*,#164,.T.);
#229=ORIENTED_EDGE('',*,*,#174,.T.);
#230=ORIENTED_EDGE('',*,*,#185,.T.);
#231=ORIENTED_EDGE('',*,*,#176,.T.);
#232=ORIENTED_EDGE('',*,*,#186,.F.);
#233=ORIENTED_EDGE('',*,*,#175,.T.);
#234=ORIENTED_EDGE('',*,*,#186,.T.);
#235=ORIENTED_EDGE('',*,*,#179,.T.);
#236=ORIENTED_EDGE('',*,*,#187,.T.);
#237=ORIENTED_EDGE('',*,*,#166,.T.);
#238=ORIENTED_EDGE('',*,*,#171,.T.);
#239=ORIENTED_EDGE('',*,*,#188,.T.);
#240=ORIENTED_EDGE('',*,*,#182,.T.);
#241=ORIENTED_EDGE('',*,*,#189,.F.);
#242=ORIENTED_EDGE('',*,*,#167,.T.);
#243=ORIENTED_EDGE('',*,*,#189,.T.);
#244=ORIENTED_EDGE('',*,*,#180,.T.);
#245=ORIENTED_EDGE('',*,*,#190,.T.);
#246=ORIENTED_EDGE('',*,*,#191,.F.);
#247=ORIENTED_EDGE('',*,*,#170,.T.);
#248=ORIENTED_EDGE('',*,*,#192,.F.);
#249=ORIENTED_EDGE('',*,*,#183,.T.);
#250=ORIENTED_EDGE('',*,*,#188,.F.);
#251=ORIENTED_EDGE('',*,*,#169,.T.);
#252=ORIENTED_EDGE('',*,*,#190,.F.);
#253=ORIENTED_EDGE('',*,*,#184,.T.);
#254=ORIENTED_EDGE('',*,*,#192,.T.);
#255=ORIENTED_EDGE('',*,*,#173,.T.);
#256=ORIENTED_EDGE('',*,*,#193,.F.);
#257=ORIENTED_EDGE('',*,*,#177,.T.);
#258=ORIENTED_EDGE('',*,*,#185,.F.);
#259=ORIENTED_EDGE('',*,*,#191,.T.);
#260=ORIENTED_EDGE('',*,*,#172,.T.);
#261=ORIENTED_EDGE('',*,*,#187,.F.);
#262=ORIENTED_EDGE('',*,*,#178,.T.);
#263=ORIENTED_EDGE('',*,*,#193,.T.);
#264=PLANE('',#296);
#265=PLANE('',#303);
#266=PLANE('',#311);
#267=PLANE('',#313);
#268=PLANE('',#315);
#269=PLANE('',#316);
#270=PLANE('',#317);
#271=PLANE('',#319);
#272=PLANE('',#324);
#273=ADVANCED_FACE('',(#63,#51),#264,.F.);
#274=ADVANCED_FACE('',(#64,#52),#49,.T.);
#275=ADVANCED_FACE('',(#65,#53),#44,.F.);
#276=ADVANCED_FACE('',(#66,#54),#265,.T.);
#277=ADVANCED_FACE('',(#67,#55),#50,.T.);
#278=ADVANCED_FACE('',(#68),#40,.F.);
#279=ADVANCED_FACE('',(#69,#56),#45,.F.);
#280=ADVANCED_FACE('',(#70),#266,.F.);
#281=ADVANCED_FACE('',(#71,#57),#267,.F.);
#282=ADVANCED_FACE('',(#72),#268,.F.);
#283=ADVANCED_FACE('',(#73),#269,.F.);
#284=ADVANCED_FACE('',(#74),#270,.F.);
#285=ADVANCED_FACE('',(#75,#58),#271,.F.);
#286=ADVANCED_FACE('',(#76),#46,.T.);
#287=ADVANCED_FACE('',(#77,#59),#272,.T.);
#288=ADVANCED_FACE('',(#78),#41,.T.);
#289=ADVANCED_FACE('',(#79,#60),#47,.T.);
#290=ADVANCED_FACE('',(#61),#15,.T.);
#291=ADVANCED_FACE('',(#80),#42,.T.);
#292=ADVANCED_FACE('',(#81,#62),#43,.T.);
#293=ADVANCED_FACE('',(#82),#48,.T.);
#294=CLOSED_SHELL('',(#273,#274,#275,#276,#277,#278,#279,#280,#281,#282,
#283,#284,#285,#286,#287,#288,#289,#290,#291,#292,#293));
#295=AXIS2_PLACEMENT_3D('placement',#432,#338,#339);
#296=AXIS2_PLACEMENT_3D('',#433,#340,#341);
#297=AXIS2_PLACEMENT_3D('',#435,#342,#343);
#298=AXIS2_PLACEMENT_3D('',#437,#344,#345);
#299=AXIS2_PLACEMENT_3D('',#438,#346,#347);
#300=AXIS2_PLACEMENT_3D('',#440,#348,#349);
#301=AXIS2_PLACEMENT_3D('',#441,#350,#351);
#302=AXIS2_PLACEMENT_3D('',#443,#352,#353);
#303=AXIS2_PLACEMENT_3D('',#444,#354,#355);
#304=AXIS2_PLACEMENT_3D('',#446,#356,#357);
#305=AXIS2_PLACEMENT_3D('',#447,#358,#359);
#306=AXIS2_PLACEMENT_3D('',#449,#360,#361);
#307=AXIS2_PLACEMENT_3D('',#450,#362,#363);
#308=AXIS2_PLACEMENT_3D('',#452,#364,#365);
#309=AXIS2_PLACEMENT_3D('',#453,#366,#367);
#310=AXIS2_PLACEMENT_3D('',#455,#368,#369);
#311=AXIS2_PLACEMENT_3D('',#456,#370,#371);
#312=AXIS2_PLACEMENT_3D('',#459,#372,#373);
#313=AXIS2_PLACEMENT_3D('',#461,#375,#376);
#314=AXIS2_PLACEMENT_3D('',#467,#377,#378);
#315=AXIS2_PLACEMENT_3D('',#471,#379,#380);
#316=AXIS2_PLACEMENT_3D('',#482,#384,#385);
#317=AXIS2_PLACEMENT_3D('',#493,#389,#390);
#318=AXIS2_PLACEMENT_3D('',#496,#391,#392);
#319=AXIS2_PLACEMENT_3D('',#498,#394,#395);
#320=AXIS2_PLACEMENT_3D('',#504,#396,#397);
#321=AXIS2_PLACEMENT_3D('',#508,#398,#399);
#322=AXIS2_PLACEMENT_3D('',#509,#400,#401);
#323=AXIS2_PLACEMENT_3D('',#510,#402,#403);
#324=AXIS2_PLACEMENT_3D('',#511,#404,#405);
#325=AXIS2_PLACEMENT_3D('',#512,#406,#407);
#326=AXIS2_PLACEMENT_3D('',#513,#408,#409);
#327=AXIS2_PLACEMENT_3D('',#514,#410,#411);
#328=AXIS2_PLACEMENT_3D('',#515,#412,#413);
#329=AXIS2_PLACEMENT_3D('',#516,#414,#415);
#330=AXIS2_PLACEMENT_3D('',#517,#416,#417);
#331=AXIS2_PLACEMENT_3D('',#519,#418,#419);
#332=AXIS2_PLACEMENT_3D('',#520,#420,#421);
#333=AXIS2_PLACEMENT_3D('',#521,#422,#423);
#334=AXIS2_PLACEMENT_3D('',#522,#424,#425);
#335=AXIS2_PLACEMENT_3D('',#523,#426,#427);
#336=AXIS2_PLACEMENT_3D('',#524,#428,#429);
#337=AXIS2_PLACEMENT_3D('',#525,#430,#431);
#338=DIRECTION('axis',(0.,0.,1.));
#339=DIRECTION('refdir',(1.,0.,0.));
#340=DIRECTION('center_axis',(-1.,-5.16085353939367E-16,0.));
#341=DIRECTION('ref_axis',(0.,0.,1.));
#342=DIRECTION('center_axis',(1.,5.16085353939367E-16,0.));
#343=DIRECTION('ref_axis',(-5.16085353939367E-16,1.,0.));
#344=DIRECTION('center_axis',(1.,5.16085353939367E-16,0.));
#345=DIRECTION('ref_axis',(-5.16085353939367E-16,1.,0.));
#346=DIRECTION('center_axis',(-1.,-5.16085353939367E-16,0.));
#347=DIRECTION('ref_axis',(0.,0.,-1.));
#348=DIRECTION('center_axis',(-1.,-1.29021338484842E-16,0.));
#349=DIRECTION('ref_axis',(0.,0.,1.));
#350=DIRECTION('center_axis',(1.,5.16085353939367E-16,0.));
#351=DIRECTION('ref_axis',(-5.16085353939367E-16,1.,0.));
#352=DIRECTION('center_axis',(1.,0.,0.));
#353=DIRECTION('ref_axis',(0.,1.,0.));
#354=DIRECTION('center_axis',(-1.,0.,0.));
#355=DIRECTION('ref_axis',(0.,0.,1.));
#356=DIRECTION('center_axis',(1.,0.,0.));
#357=DIRECTION('ref_axis',(0.,1.,0.));
#358=DIRECTION('center_axis',(1.,0.,0.));
#359=DIRECTION('ref_axis',(0.,0.,-1.));
#360=DIRECTION('center_axis',(1.,1.29021338484842E-16,0.));
#361=DIRECTION('ref_axis',(0.,0.,-1.));
#362=DIRECTION('center_axis',(0.,-1.,0.));
#363=DIRECTION('ref_axis',(1.,0.,0.));
#364=DIRECTION('center_axis',(0.,-1.,0.));
#365=DIRECTION('ref_axis',(1.,0.,0.));
#366=DIRECTION('center_axis',(0.,-1.,0.));
#367=DIRECTION('ref_axis',(1.,0.,0.));
#368=DIRECTION('center_axis',(0.,1.,0.));
#369=DIRECTION('ref_axis',(1.,0.,0.));
#370=DIRECTION('center_axis',(-0.808141118428659,-0.588988907115301,0.));
#371=DIRECTION('ref_axis',(0.,0.,1.));
#372=DIRECTION('center_axis',(-0.808141118428659,-0.588988907115301,0.));
#373=DIRECTION('ref_axis',(0.588988907115301,-0.808141118428659,0.));
#374=DIRECTION('',(0.,0.,-1.));
#375=DIRECTION('center_axis',(-1.,2.58042676969683E-16,0.));
#376=DIRECTION('ref_axis',(0.,0.,1.));
#377=DIRECTION('center_axis',(-1.,2.58042676969683E-16,0.));
#378=DIRECTION('ref_axis',(0.,0.,-1.));
#379=DIRECTION('center_axis',(-1.,1.39542294916872E-16,0.));
#380=DIRECTION('ref_axis',(0.,0.,1.));
#381=DIRECTION('',(0.,-1.,0.));
#382=DIRECTION('',(0.,1.,0.));
#383=DIRECTION('',(0.,0.,1.));
#384=DIRECTION('center_axis',(1.,1.39542294916872E-16,0.));
#385=DIRECTION('ref_axis',(0.,0.,-1.));
#386=DIRECTION('',(0.,-1.,0.));
#387=DIRECTION('',(0.,1.,0.));
#388=DIRECTION('',(0.,0.,-1.));
#389=DIRECTION('center_axis',(0.808141118428658,-0.588988907115302,0.));
#390=DIRECTION('ref_axis',(0.,0.,-1.));
#391=DIRECTION('center_axis',(0.808141118428658,-0.588988907115302,0.));
#392=DIRECTION('ref_axis',(0.588988907115302,0.808141118428658,0.));
#393=DIRECTION('',(0.,0.,-1.));
#394=DIRECTION('center_axis',(1.,2.58042676969683E-16,0.));
#395=DIRECTION('ref_axis',(0.,0.,-1.));
#396=DIRECTION('center_axis',(1.,2.58042676969683E-16,0.));
#397=DIRECTION('ref_axis',(0.,0.,1.));
#398=DIRECTION('center_axis',(0.,-1.,0.));
#399=DIRECTION('ref_axis',(1.,0.,0.));
#400=DIRECTION('center_axis',(0.,-1.,0.));
#401=DIRECTION('ref_axis',(1.,0.,0.));
#402=DIRECTION('center_axis',(0.,-1.,0.));
#403=DIRECTION('ref_axis',(1.,0.,0.));
#404=DIRECTION('center_axis',(0.,-1.,0.));
#405=DIRECTION('ref_axis',(0.,0.,-1.));
#406=DIRECTION('center_axis',(0.,-1.,0.));
#407=DIRECTION('ref_axis',(1.,0.,0.));
#408=DIRECTION('center_axis',(0.,1.,0.));
#409=DIRECTION('ref_axis',(1.,0.,0.));
#410=DIRECTION('center_axis',(0.,-1.,0.));
#411=DIRECTION('ref_axis',(1.,0.,0.));
#412=DIRECTION('center_axis',(0.,-1.,0.));
#413=DIRECTION('ref_axis',(1.,0.,0.));
#414=DIRECTION('center_axis',(0.,-1.,0.));
#415=DIRECTION('ref_axis',(1.,0.,0.));
#416=DIRECTION('center_axis',(0.,-1.,0.));
#417=DIRECTION('ref_axis',(1.,0.,0.));
#418=DIRECTION('center_axis',(0.,-1.,0.));
#419=DIRECTION('ref_axis',(1.,0.,0.));
#420=DIRECTION('center_axis',(6.12323399573677E-17,0.,1.));
#421=DIRECTION('ref_axis',(1.,0.,0.));
#422=DIRECTION('center_axis',(0.,-1.,0.));
#423=DIRECTION('ref_axis',(1.,0.,0.));
#424=DIRECTION('center_axis',(0.,1.,0.));
#425=DIRECTION('ref_axis',(1.,0.,0.));
#426=DIRECTION('center_axis',(0.,-1.,0.));
#427=DIRECTION('ref_axis',(1.,0.,0.));
#428=DIRECTION('center_axis',(0.,-1.,0.));
#429=DIRECTION('ref_axis',(1.,0.,0.));
#430=DIRECTION('center_axis',(0.,-1.,0.));
#431=DIRECTION('ref_axis',(1.,0.,0.));
#432=CARTESIAN_POINT('',(0.,0.,0.));
#433=CARTESIAN_POINT('Origin',(12.5,88.,0.));
#434=CARTESIAN_POINT('',(12.5,89.,0.));
#435=CARTESIAN_POINT('Origin',(12.5,77.,0.));
#436=CARTESIAN_POINT('',(12.5,87.,0.));
#437=CARTESIAN_POINT('Origin',(12.5,77.,0.));
#438=CARTESIAN_POINT('Origin',(8.41656702528695,77.,0.));
#439=CARTESIAN_POINT('',(8.99999999999999,92.,0.));
#440=CARTESIAN_POINT('Origin',(9.00000000000002,77.,0.));
#441=CARTESIAN_POINT('Origin',(10.75,77.,0.));
#442=CARTESIAN_POINT('',(-12.5,87.,0.));
#443=CARTESIAN_POINT('Origin',(-12.5,77.,0.));
#444=CARTESIAN_POINT('Origin',(-12.5,88.,0.));
#445=CARTESIAN_POINT('',(-12.5,89.,0.));
#446=CARTESIAN_POINT('Origin',(-12.5,77.,0.));
#447=CARTESIAN_POINT('Origin',(-8.41656702528696,77.,0.));
#448=CARTESIAN_POINT('',(-9.00000000000001,92.,0.));
#449=CARTESIAN_POINT('Origin',(-9.00000000000001,77.,0.));
#450=CARTESIAN_POINT('Origin',(0.,36.7603536838126,0.));
#451=CARTESIAN_POINT('',(9.188,34.,0.));
#452=CARTESIAN_POINT('Origin',(0.,34.,0.));
#453=CARTESIAN_POINT('Origin',(0.,17.,0.));
#454=CARTESIAN_POINT('',(9.188,5.20457700374511E-16,0.));
#455=CARTESIAN_POINT('Origin',(0.,0.,0.));
#456=CARTESIAN_POINT('Origin',(9.,49.,30.));
#457=CARTESIAN_POINT('',(9.,49.,-10.062305898749));
#458=CARTESIAN_POINT('',(9.,49.,10.062305898749));
#459=CARTESIAN_POINT('Origin',(0.,61.3487386230758,0.));
#460=CARTESIAN_POINT('',(9.,49.,30.));
#461=CARTESIAN_POINT('Origin',(9.00000000000002,104.93221822692,30.));
#462=CARTESIAN_POINT('',(9.00000000000001,65.3411350123104,-20.2007640251262));
#463=CARTESIAN_POINT('Ctrl Pts',(9.00000000000001,65.3411350123104,-20.2007640251262));
#464=CARTESIAN_POINT('Ctrl Pts',(9.00000000000001,54.4333383771125,-13.9053324204221));
#465=CARTESIAN_POINT('Ctrl Pts',(9.,49.,-10.062305898749));
#466=CARTESIAN_POINT('',(9.00000000000001,65.3411350123104,20.2007640251262));
#467=CARTESIAN_POINT('Origin',(9.00000000000001,77.,0.));
#468=CARTESIAN_POINT('Ctrl Pts',(9.,49.,10.062305898749));
#469=CARTESIAN_POINT('Ctrl Pts',(9.00000000000001,54.4333383771125,13.9053324204221));
#470=CARTESIAN_POINT('Ctrl Pts',(9.00000000000001,65.3411350123104,20.2007640251262));
#471=CARTESIAN_POINT('Origin',(15.,15.9123515244827,30.));
#472=CARTESIAN_POINT('',(15.,10.,-7.99999999999999));
#473=CARTESIAN_POINT('',(15.,0.,-8.));
#474=CARTESIAN_POINT('',(15.,5.,-8.));
#475=CARTESIAN_POINT('',(15.,10.,7.99999999999999));
#476=CARTESIAN_POINT('Ctrl Pts',(15.,10.,7.99999999999999));
#477=CARTESIAN_POINT('Ctrl Pts',(15.,11.9847299752342,0.));
#478=CARTESIAN_POINT('Ctrl Pts',(15.,10.,-7.99999999999999));
#479=CARTESIAN_POINT('',(15.,0.,8.));
#480=CARTESIAN_POINT('',(15.,5.,8.));
#481=CARTESIAN_POINT('',(15.,0.,15.));
#482=CARTESIAN_POINT('Origin',(-15.,0.,30.));
#483=CARTESIAN_POINT('',(-15.,10.,7.99999999999999));
#484=CARTESIAN_POINT('',(-15.,0.,8.));
#485=CARTESIAN_POINT('',(-15.,5.,8.));
#486=CARTESIAN_POINT('',(-15.,10.,-7.99999999999999));
#487=CARTESIAN_POINT('Ctrl Pts',(-15.,10.,-8.));
#488=CARTESIAN_POINT('Ctrl Pts',(-15.,11.9847299752342,0.));
#489=CARTESIAN_POINT('Ctrl Pts',(-15.,10.,8.));
#490=CARTESIAN_POINT('',(-15.,0.,-8.));
#491=CARTESIAN_POINT('',(-15.,5.,-8.));
#492=CARTESIAN_POINT('',(-15.,5.20457700374511E-16,15.));
#493=CARTESIAN_POINT('Origin',(-13.5,42.8256306884621,30.));
#494=CARTESIAN_POINT('',(-9.,49.,10.062305898749));
#495=CARTESIAN_POINT('',(-9.,49.,-10.062305898749));
#496=CARTESIAN_POINT('Origin',(0.,61.3487386230758,0.));
#497=CARTESIAN_POINT('',(-9.,49.,30.));
#498=CARTESIAN_POINT('Origin',(-9.,49.,30.));
#499=CARTESIAN_POINT('',(-9.00000000000001,65.3411350123104,20.2007640251262));
#500=CARTESIAN_POINT('Ctrl Pts',(-9.00000000000001,65.3411350123104,20.2007640251262));
#501=CARTESIAN_POINT('Ctrl Pts',(-9.00000000000001,54.4333383771125,13.9053324204221));
#502=CARTESIAN_POINT('Ctrl Pts',(-9.,49.,10.062305898749));
#503=CARTESIAN_POINT('',(-9.00000000000001,65.3411350123104,-20.2007640251262));
#504=CARTESIAN_POINT('Origin',(-9.00000000000001,77.,0.));
#505=CARTESIAN_POINT('Ctrl Pts',(-9.,49.,-10.062305898749));
#506=CARTESIAN_POINT('Ctrl Pts',(-9.00000000000001,54.4333383771125,-13.9053324204221));
#507=CARTESIAN_POINT('Ctrl Pts',(-9.00000000000001,65.3411350123104,-20.2007640251262));
#508=CARTESIAN_POINT('Origin',(0.,5.,0.));
#509=CARTESIAN_POINT('Origin',(0.,10.,0.));
#510=CARTESIAN_POINT('Origin',(0.,0.,0.));
#511=CARTESIAN_POINT('Origin',(8.5,5.20457700374511E-16,0.));
#512=CARTESIAN_POINT('Origin',(0.,0.,0.));
#513=CARTESIAN_POINT('Origin',(0.,57.1705675061552,0.));
#514=CARTESIAN_POINT('Origin',(0.,65.3411350123104,0.));
#515=CARTESIAN_POINT('Origin',(0.,49.,0.));
#516=CARTESIAN_POINT('Origin',(0.,30.4225893244253,0.));
#517=CARTESIAN_POINT('Origin',(0.,49.,0.));
#518=CARTESIAN_POINT('',(13.5,11.8451786488505,0.));
#519=CARTESIAN_POINT('Origin',(0.,11.8451786488505,0.));
#520=CARTESIAN_POINT('Origin',(4.88498130835069E-14,77.,0.));
#521=CARTESIAN_POINT('Origin',(0.,65.3411350123104,0.));
#522=CARTESIAN_POINT('Origin',(0.,57.1705675061552,0.));
#523=CARTESIAN_POINT('Origin',(0.,10.9225893244253,0.));
#524=CARTESIAN_POINT('Origin',(0.,10.,0.));
#525=CARTESIAN_POINT('Origin',(0.,5.,0.));
#526=UNCERTAINTY_MEASURE_WITH_UNIT(LENGTH_MEASURE(0.01),#530,
'DISTANCE_ACCURACY_VALUE',
'Maximum model space distance between geometric entities at asserted c
onnectivities');
#527=UNCERTAINTY_MEASURE_WITH_UNIT(LENGTH_MEASURE(1.E-6),#530,
'DISTANCE_ACCURACY_VALUE',
'Maximum model space distance between geometric entities at asserted c
onnectivities');
#528=(
GEOMETRIC_REPRESENTATION_CONTEXT(3)
GLOBAL_UNCERTAINTY_ASSIGNED_CONTEXT((#526))
GLOBAL_UNIT_ASSIGNED_CONTEXT((#530,#533,#531))
REPRESENTATION_CONTEXT('','3D')
);
#529=(
GEOMETRIC_REPRESENTATION_CONTEXT(3)
GLOBAL_UNCERTAINTY_ASSIGNED_CONTEXT((#527))
GLOBAL_UNIT_ASSIGNED_CONTEXT((#530,#533,#531))
REPRESENTATION_CONTEXT('','3D')
);
#530=(
LENGTH_UNIT()
NAMED_UNIT(*)
SI_UNIT(.MILLI.,.METRE.)
);
#531=(
NAMED_UNIT(*)
SI_UNIT($,.STERADIAN.)
SOLID_ANGLE_UNIT()
);
#532=DIMENSIONAL_EXPONENTS(0.,0.,0.,0.,0.,0.,0.);
#533=(
CONVERSION_BASED_UNIT('degree',#535)
NAMED_UNIT(#532)
PLANE_ANGLE_UNIT()
);
#534=(
NAMED_UNIT(*)
PLANE_ANGLE_UNIT()
SI_UNIT($,.RADIAN.)
);
#535=PLANE_ANGLE_MEASURE_WITH_UNIT(PLANE_ANGLE_MEASURE(0.01745329252),#534);
#536=SHAPE_DEFINITION_REPRESENTATION(#537,#538);
#537=PRODUCT_DEFINITION_SHAPE('',$,#540);
#538=SHAPE_REPRESENTATION('',(#295),#528);
#539=PRODUCT_DEFINITION_CONTEXT('part definition',#544,'design');
#540=PRODUCT_DEFINITION('CAD_9211','CAD_9211',#541,#539);
#541=PRODUCT_DEFINITION_FORMATION('',$,#546);
#542=PRODUCT_RELATED_PRODUCT_CATEGORY('CAD_9211','CAD_9211',(#546));
#543=APPLICATION_PROTOCOL_DEFINITION('international standard',
'automotive_design',2009,#544);
#544=APPLICATION_CONTEXT(
'Core Data for Automotive Mechanical Design Process');
#545=PRODUCT_CONTEXT('part definition',#544,'mechanical');
#546=PRODUCT('CAD_9211','CAD_9211',$,(#545));
#547=PRESENTATION_STYLE_ASSIGNMENT((#548));
#548=SURFACE_STYLE_USAGE(.BOTH.,#549);
#549=SURFACE_SIDE_STYLE('',(#550));
#550=SURFACE_STYLE_FILL_AREA(#551);
#551=FILL_AREA_STYLE('',(#552));
#552=FILL_AREA_STYLE_COLOUR('',#553);
#553=COLOUR_RGB('',0.67843137254902,0.768627450980392,0.811764705882353);
ENDSEC;
END-ISO-10303-21;
