ISO-10303-21;
HEADER;
/****************************************************************
 * Generated by software with PDE/Lib inside                    *
 * PDElib Version v51a, created Tue 12/06/2005                  *
 * International Technegroup Inc. (www.iti-oh.com)              *
 ****************************************************************/
FILE_DESCRIPTION((''),'2;1');
FILE_NAME('U:\\Paletti Norm\\Paletti Artikel f. Palkat\\STEP\\SZ1330S.ipt.step','2007-09-11T11:06:23',(''),(''),'Autodesk Inventor 11','Autodesk Inventor 11','');
FILE_SCHEMA(('AUTOMOTIVE_DESIGN { 1 0 10303 214 1 1 1 1 }'));
ENDSEC;
DATA;
#5=APPLICATION_CONTEXT('automotive design');
#6=APPLICATION_PROTOCOL_DEFINITION('International Standard','automotive_design',2001,#5);
#7=PRODUCT_CONTEXT('',#5,'mechanical');
#8=PRODUCT('SZ1330S','SZ1330S',$,(#7));
#9=PRODUCT_RELATED_PRODUCT_CATEGORY('part',$,(#8));
#10=PRODUCT_DEFINITION_FORMATION('',$,#8);
#11=PRODUCT_DEFINITION_CONTEXT('part definition',#5,'design');
#12=PRODUCT_DEFINITION('',$,#10,#11);
#18=(NAMED_UNIT(*)PLANE_ANGLE_UNIT()SI_UNIT($,.RADIAN.));
#19=DIMENSIONAL_EXPONENTS(0.0,0.0,0.0,0.0,0.0,0.0,0.0);
#20=PLANE_ANGLE_MEASURE_WITH_UNIT(PLANE_ANGLE_MEASURE(0.017453292500000),#18);
#24=(CONVERSION_BASED_UNIT('DEGREE',#20)NAMED_UNIT(#19)PLANE_ANGLE_UNIT());
#28=(NAMED_UNIT(*)SI_UNIT($,.STERADIAN.)SOLID_ANGLE_UNIT());
#32=(LENGTH_UNIT()NAMED_UNIT(*)SI_UNIT(.MILLI.,.METRE.));
#34=UNCERTAINTY_MEASURE_WITH_UNIT(LENGTH_MEASURE(0.010000000000000),#32,'DISTANCE_ACCURACY_VALUE','');
#36=(GEOMETRIC_REPRESENTATION_CONTEXT(3)GLOBAL_UNCERTAINTY_ASSIGNED_CONTEXT((#34))GLOBAL_UNIT_ASSIGNED_CONTEXT((#24,#28,#32))REPRESENTATION_CONTEXT('None','None'));
#37=AXIS2_PLACEMENT_3D('',#38,#39,#40);
#38=CARTESIAN_POINT('',(0.0,0.0,0.0));
#39=DIRECTION('',(0.0,0.0,1.0));
#40=DIRECTION('',(1.0,0.0,0.0));
#41=SHAPE_REPRESENTATION('',(#37),#36);
#42=PRODUCT_DEFINITION_SHAPE('','',#12);
#43=SHAPE_DEFINITION_REPRESENTATION(#42,#41);
#44=CARTESIAN_POINT('',(-3.850000000000000,0.0,-5.750000000000001));
#45=DIRECTION('',(0.0,0.0,1.0));
#46=DIRECTION('',(1.0,0.0,0.0));
#47=AXIS2_PLACEMENT_3D('',#44,#45,#46);
#48=PLANE('',#47);
#49=CARTESIAN_POINT('',(-3.850000000000000,20.0,-5.750000000000001));
#50=VERTEX_POINT('',#49);
#51=CARTESIAN_POINT('',(-9.0,20.0,-5.750000000000001));
#52=VERTEX_POINT('',#51);
#53=CARTESIAN_POINT('',(-3.850000000000000,20.0,-5.750000000000001));
#54=DIRECTION('',(-1.0,0.0,0.0));
#55=VECTOR('',#54,5.150000000000000);
#56=LINE('',#53,#55);
#57=EDGE_CURVE('',#50,#52,#56,.T.);
#58=ORIENTED_EDGE('',*,*,#57,.T.);
#59=CARTESIAN_POINT('',(-9.0,-20.0,-5.750000000000001));
#60=VERTEX_POINT('',#59);
#61=CARTESIAN_POINT('',(-9.0,-20.0,-5.750000000000001));
#62=DIRECTION('',(0.0,1.0,0.0));
#63=VECTOR('',#62,40.0);
#64=LINE('',#61,#63);
#65=EDGE_CURVE('',#60,#52,#64,.T.);
#66=ORIENTED_EDGE('',*,*,#65,.F.);
#67=CARTESIAN_POINT('',(-3.850000000000000,-20.0,-5.750000000000001));
#68=VERTEX_POINT('',#67);
#69=CARTESIAN_POINT('',(-9.0,-20.0,-5.750000000000001));
#70=DIRECTION('',(1.0,0.0,0.0));
#71=VECTOR('',#70,5.150000000000000);
#72=LINE('',#69,#71);
#73=EDGE_CURVE('',#60,#68,#72,.T.);
#74=ORIENTED_EDGE('',*,*,#73,.T.);
#75=CARTESIAN_POINT('',(-3.850000000000000,-20.0,-5.750000000000001));
#76=DIRECTION('',(0.0,1.0,0.0));
#77=VECTOR('',#76,40.0);
#78=LINE('',#75,#77);
#79=EDGE_CURVE('',#68,#50,#78,.T.);
#80=ORIENTED_EDGE('',*,*,#79,.T.);
#81=EDGE_LOOP('',(#58,#66,#74,#80));
#82=FACE_OUTER_BOUND('',#81,.T.);
#83=ADVANCED_FACE('',(#82),#48,.T.);
#84=CARTESIAN_POINT('',(-9.0,0.0,-5.750000000000001));
#85=DIRECTION('',(-1.0,0.0,0.0));
#86=DIRECTION('',(0.0,0.0,1.0));
#87=AXIS2_PLACEMENT_3D('',#84,#85,#86);
#88=PLANE('',#87);
#89=CARTESIAN_POINT('',(-9.0,20.0,-7.300000000000000));
#90=VERTEX_POINT('',#89);
#91=CARTESIAN_POINT('',(-9.0,20.0,-5.750000000000001));
#92=DIRECTION('',(0.0,0.0,-1.0));
#93=VECTOR('',#92,1.549999999999999);
#94=LINE('',#91,#93);
#95=EDGE_CURVE('',#52,#90,#94,.T.);
#96=ORIENTED_EDGE('',*,*,#95,.T.);
#97=CARTESIAN_POINT('',(-9.0,-20.0,-7.300000000000000));
#98=VERTEX_POINT('',#97);
#99=CARTESIAN_POINT('',(-9.0,-20.0,-7.300000000000000));
#100=DIRECTION('',(0.0,1.0,0.0));
#101=VECTOR('',#100,40.0);
#102=LINE('',#99,#101);
#103=EDGE_CURVE('',#98,#90,#102,.T.);
#104=ORIENTED_EDGE('',*,*,#103,.F.);
#105=CARTESIAN_POINT('',(-9.0,-20.0,-7.300000000000000));
#106=DIRECTION('',(0.0,0.0,1.0));
#107=VECTOR('',#106,1.549999999999999);
#108=LINE('',#105,#107);
#109=EDGE_CURVE('',#98,#60,#108,.T.);
#110=ORIENTED_EDGE('',*,*,#109,.T.);
#111=ORIENTED_EDGE('',*,*,#65,.T.);
#112=EDGE_LOOP('',(#96,#104,#110,#111));
#113=FACE_OUTER_BOUND('',#112,.T.);
#114=ADVANCED_FACE('',(#113),#88,.T.);
#115=CARTESIAN_POINT('',(-9.0,0.0,-7.300000000000000));
#116=DIRECTION('',(-0.707106781186548,0.0,-0.707106781186548));
#117=DIRECTION('',(-0.707106781186548,0.0,0.707106781186548));
#118=AXIS2_PLACEMENT_3D('',#115,#116,#117);
#119=PLANE('',#118);
#120=CARTESIAN_POINT('',(-3.300000000000000,20.0,-12.999999999999998));
#121=VERTEX_POINT('',#120);
#122=CARTESIAN_POINT('',(-9.0,20.0,-7.300000000000000));
#123=DIRECTION('',(0.707106781186548,0.0,-0.707106781186547));
#124=VECTOR('',#123,8.061017305526640);
#125=LINE('',#122,#124);
#126=EDGE_CURVE('',#90,#121,#125,.T.);
#127=ORIENTED_EDGE('',*,*,#126,.T.);
#128=CARTESIAN_POINT('',(-3.300000000000000,-20.0,-12.999999999999998));
#129=VERTEX_POINT('',#128);
#130=CARTESIAN_POINT('',(-3.300000000000000,-20.0,-12.999999999999998));
#131=DIRECTION('',(0.0,1.0,0.0));
#132=VECTOR('',#131,40.0);
#133=LINE('',#130,#132);
#134=EDGE_CURVE('',#129,#121,#133,.T.);
#135=ORIENTED_EDGE('',*,*,#134,.F.);
#136=CARTESIAN_POINT('',(-3.300000000000000,-20.0,-12.999999999999998));
#137=DIRECTION('',(-0.707106781186548,0.0,0.707106781186547));
#138=VECTOR('',#137,8.061017305526640);
#139=LINE('',#136,#138);
#140=EDGE_CURVE('',#129,#98,#139,.T.);
#141=ORIENTED_EDGE('',*,*,#140,.T.);
#142=ORIENTED_EDGE('',*,*,#103,.T.);
#143=EDGE_LOOP('',(#127,#135,#141,#142));
#144=FACE_OUTER_BOUND('',#143,.T.);
#145=ADVANCED_FACE('',(#144),#119,.T.);
#146=CARTESIAN_POINT('',(-3.300000000000000,0.0,-12.999999999999998));
#147=DIRECTION('',(0.0,0.0,-1.0));
#148=DIRECTION('',(-1.0,0.0,0.0));
#149=AXIS2_PLACEMENT_3D('',#146,#147,#148);
#150=PLANE('',#149);
#151=CARTESIAN_POINT('',(3.300000000000000,20.0,-12.999999999999998));
#152=VERTEX_POINT('',#151);
#153=CARTESIAN_POINT('',(-3.300000000000000,20.0,-12.999999999999998));
#154=DIRECTION('',(1.0,0.0,0.0));
#155=VECTOR('',#154,6.600000000000001);
#156=LINE('',#153,#155);
#157=EDGE_CURVE('',#121,#152,#156,.T.);
#158=ORIENTED_EDGE('',*,*,#157,.T.);
#159=CARTESIAN_POINT('',(3.300000000000000,-20.0,-12.999999999999998));
#160=VERTEX_POINT('',#159);
#161=CARTESIAN_POINT('',(3.300000000000000,-20.0,-12.999999999999998));
#162=DIRECTION('',(0.0,1.0,0.0));
#163=VECTOR('',#162,40.0);
#164=LINE('',#161,#163);
#165=EDGE_CURVE('',#160,#152,#164,.T.);
#166=ORIENTED_EDGE('',*,*,#165,.F.);
#167=CARTESIAN_POINT('',(3.300000000000000,-20.0,-12.999999999999998));
#168=DIRECTION('',(-1.0,0.0,0.0));
#169=VECTOR('',#168,6.600000000000001);
#170=LINE('',#167,#169);
#171=EDGE_CURVE('',#160,#129,#170,.T.);
#172=ORIENTED_EDGE('',*,*,#171,.T.);
#173=ORIENTED_EDGE('',*,*,#134,.T.);
#174=EDGE_LOOP('',(#158,#166,#172,#173));
#175=FACE_OUTER_BOUND('',#174,.T.);
#176=ADVANCED_FACE('',(#175),#150,.T.);
#177=CARTESIAN_POINT('',(3.300000000000000,0.0,-12.999999999999998));
#178=DIRECTION('',(0.707106781186548,0.0,-0.707106781186548));
#179=DIRECTION('',(-0.707106781186548,0.0,-0.707106781186548));
#180=AXIS2_PLACEMENT_3D('',#177,#178,#179);
#181=PLANE('',#180);
#182=CARTESIAN_POINT('',(9.0,20.0,-7.300000000000000));
#183=VERTEX_POINT('',#182);
#184=CARTESIAN_POINT('',(3.300000000000000,20.0,-12.999999999999998));
#185=DIRECTION('',(0.707106781186548,0.0,0.707106781186547));
#186=VECTOR('',#185,8.061017305526640);
#187=LINE('',#184,#186);
#188=EDGE_CURVE('',#152,#183,#187,.T.);
#189=ORIENTED_EDGE('',*,*,#188,.T.);
#190=CARTESIAN_POINT('',(9.0,-20.0,-7.300000000000000));
#191=VERTEX_POINT('',#190);
#192=CARTESIAN_POINT('',(9.0,-20.0,-7.300000000000000));
#193=DIRECTION('',(0.0,1.0,0.0));
#194=VECTOR('',#193,40.0);
#195=LINE('',#192,#194);
#196=EDGE_CURVE('',#191,#183,#195,.T.);
#197=ORIENTED_EDGE('',*,*,#196,.F.);
#198=CARTESIAN_POINT('',(9.0,-20.0,-7.300000000000000));
#199=DIRECTION('',(-0.707106781186548,0.0,-0.707106781186547));
#200=VECTOR('',#199,8.061017305526640);
#201=LINE('',#198,#200);
#202=EDGE_CURVE('',#191,#160,#201,.T.);
#203=ORIENTED_EDGE('',*,*,#202,.T.);
#204=ORIENTED_EDGE('',*,*,#165,.T.);
#205=EDGE_LOOP('',(#189,#197,#203,#204));
#206=FACE_OUTER_BOUND('',#205,.T.);
#207=ADVANCED_FACE('',(#206),#181,.T.);
#208=CARTESIAN_POINT('',(9.0,0.0,-7.300000000000000));
#209=DIRECTION('',(1.0,0.0,0.0));
#210=DIRECTION('',(0.0,0.0,-1.0));
#211=AXIS2_PLACEMENT_3D('',#208,#209,#210);
#212=PLANE('',#211);
#213=CARTESIAN_POINT('',(9.0,20.0,-5.750000000000001));
#214=VERTEX_POINT('',#213);
#215=CARTESIAN_POINT('',(9.0,20.0,-7.300000000000000));
#216=DIRECTION('',(0.0,0.0,1.0));
#217=VECTOR('',#216,1.549999999999999);
#218=LINE('',#215,#217);
#219=EDGE_CURVE('',#183,#214,#218,.T.);
#220=ORIENTED_EDGE('',*,*,#219,.T.);
#221=CARTESIAN_POINT('',(9.0,-20.0,-5.750000000000001));
#222=VERTEX_POINT('',#221);
#223=CARTESIAN_POINT('',(9.0,-20.0,-5.750000000000001));
#224=DIRECTION('',(0.0,1.0,0.0));
#225=VECTOR('',#224,40.0);
#226=LINE('',#223,#225);
#227=EDGE_CURVE('',#222,#214,#226,.T.);
#228=ORIENTED_EDGE('',*,*,#227,.F.);
#229=CARTESIAN_POINT('',(9.0,-20.0,-5.750000000000001));
#230=DIRECTION('',(0.0,0.0,-1.0));
#231=VECTOR('',#230,1.549999999999999);
#232=LINE('',#229,#231);
#233=EDGE_CURVE('',#222,#191,#232,.T.);
#234=ORIENTED_EDGE('',*,*,#233,.T.);
#235=ORIENTED_EDGE('',*,*,#196,.T.);
#236=EDGE_LOOP('',(#220,#228,#234,#235));
#237=FACE_OUTER_BOUND('',#236,.T.);
#238=ADVANCED_FACE('',(#237),#212,.T.);
#239=CARTESIAN_POINT('',(9.0,0.0,-5.750000000000001));
#240=DIRECTION('',(0.0,0.0,1.0));
#241=DIRECTION('',(1.0,0.0,0.0));
#242=AXIS2_PLACEMENT_3D('',#239,#240,#241);
#243=PLANE('',#242);
#244=CARTESIAN_POINT('',(3.850000000000000,20.0,-5.750000000000001));
#245=VERTEX_POINT('',#244);
#246=CARTESIAN_POINT('',(9.0,20.0,-5.750000000000001));
#247=DIRECTION('',(-1.0,0.0,0.0));
#248=VECTOR('',#247,5.150000000000000);
#249=LINE('',#246,#248);
#250=EDGE_CURVE('',#214,#245,#249,.T.);
#251=ORIENTED_EDGE('',*,*,#250,.T.);
#252=CARTESIAN_POINT('',(3.850000000000000,-20.0,-5.750000000000001));
#253=VERTEX_POINT('',#252);
#254=CARTESIAN_POINT('',(3.850000000000000,-20.0,-5.750000000000001));
#255=DIRECTION('',(0.0,1.0,0.0));
#256=VECTOR('',#255,40.0);
#257=LINE('',#254,#256);
#258=EDGE_CURVE('',#253,#245,#257,.T.);
#259=ORIENTED_EDGE('',*,*,#258,.F.);
#260=CARTESIAN_POINT('',(3.850000000000000,-20.0,-5.750000000000001));
#261=DIRECTION('',(1.0,0.0,0.0));
#262=VECTOR('',#261,5.150000000000000);
#263=LINE('',#260,#262);
#264=EDGE_CURVE('',#253,#222,#263,.T.);
#265=ORIENTED_EDGE('',*,*,#264,.T.);
#266=ORIENTED_EDGE('',*,*,#227,.T.);
#267=EDGE_LOOP('',(#251,#259,#265,#266));
#268=FACE_OUTER_BOUND('',#267,.T.);
#269=ADVANCED_FACE('',(#268),#243,.T.);
#270=CARTESIAN_POINT('',(-4.163336E-016,-20.0,6.542667019514731));
#271=DIRECTION('',(0.0,1.0,0.0));
#272=DIRECTION('',(0.0,0.0,1.0));
#273=AXIS2_PLACEMENT_3D('',#270,#271,#272);
#274=PLANE('',#273);
#275=CARTESIAN_POINT('',(-3.850000000000000,-20.0,5.750000000000001));
#276=VERTEX_POINT('',#275);
#277=CARTESIAN_POINT('',(-9.0,-20.0,5.750000000000001));
#278=VERTEX_POINT('',#277);
#279=CARTESIAN_POINT('',(-3.850000000000000,-20.0,5.750000000000001));
#280=DIRECTION('',(-1.0,0.0,0.0));
#281=VECTOR('',#280,5.150000000000000);
#282=LINE('',#279,#281);
#283=EDGE_CURVE('',#276,#278,#282,.T.);
#284=ORIENTED_EDGE('',*,*,#283,.F.);
#285=CARTESIAN_POINT('',(-3.850000000000000,-20.0,-5.750000000000001));
#286=DIRECTION('',(0.0,0.0,1.0));
#287=VECTOR('',#286,11.500000000000002);
#288=LINE('',#285,#287);
#289=EDGE_CURVE('',#68,#276,#288,.T.);
#290=ORIENTED_EDGE('',*,*,#289,.F.);
#291=ORIENTED_EDGE('',*,*,#73,.F.);
#292=ORIENTED_EDGE('',*,*,#109,.F.);
#293=ORIENTED_EDGE('',*,*,#140,.F.);
#294=ORIENTED_EDGE('',*,*,#171,.F.);
#295=ORIENTED_EDGE('',*,*,#202,.F.);
#296=ORIENTED_EDGE('',*,*,#233,.F.);
#297=ORIENTED_EDGE('',*,*,#264,.F.);
#298=CARTESIAN_POINT('',(3.850000000000000,-20.0,5.750000000000001));
#299=VERTEX_POINT('',#298);
#300=CARTESIAN_POINT('',(3.850000000000000,-20.0,5.750000000000001));
#301=DIRECTION('',(0.0,0.0,-1.0));
#302=VECTOR('',#301,11.500000000000002);
#303=LINE('',#300,#302);
#304=EDGE_CURVE('',#299,#253,#303,.T.);
#305=ORIENTED_EDGE('',*,*,#304,.F.);
#306=CARTESIAN_POINT('',(9.0,-20.0,5.750000000000001));
#307=VERTEX_POINT('',#306);
#308=CARTESIAN_POINT('',(9.0,-20.0,5.750000000000001));
#309=DIRECTION('',(-1.0,0.0,0.0));
#310=VECTOR('',#309,5.150000000000000);
#311=LINE('',#308,#310);
#312=EDGE_CURVE('',#307,#299,#311,.T.);
#313=ORIENTED_EDGE('',*,*,#312,.F.);
#314=CARTESIAN_POINT('',(9.0,-20.0,7.300000000000000));
#315=VERTEX_POINT('',#314);
#316=CARTESIAN_POINT('',(9.0,-20.0,7.300000000000000));
#317=DIRECTION('',(0.0,0.0,-1.0));
#318=VECTOR('',#317,1.549999999999999);
#319=LINE('',#316,#318);
#320=EDGE_CURVE('',#315,#307,#319,.T.);
#321=ORIENTED_EDGE('',*,*,#320,.F.);
#322=CARTESIAN_POINT('',(3.300000000000000,-20.0,12.999999999999998));
#323=VERTEX_POINT('',#322);
#324=CARTESIAN_POINT('',(3.300000000000000,-20.0,12.999999999999998));
#325=DIRECTION('',(0.707106781186548,0.0,-0.707106781186547));
#326=VECTOR('',#325,8.061017305526640);
#327=LINE('',#324,#326);
#328=EDGE_CURVE('',#323,#315,#327,.T.);
#329=ORIENTED_EDGE('',*,*,#328,.F.);
#330=CARTESIAN_POINT('',(-3.300000000000000,-20.0,12.999999999999998));
#331=VERTEX_POINT('',#330);
#332=CARTESIAN_POINT('',(-3.300000000000000,-20.0,12.999999999999998));
#333=DIRECTION('',(1.0,0.0,0.0));
#334=VECTOR('',#333,6.600000000000001);
#335=LINE('',#332,#334);
#336=EDGE_CURVE('',#331,#323,#335,.T.);
#337=ORIENTED_EDGE('',*,*,#336,.F.);
#338=CARTESIAN_POINT('',(-9.0,-20.0,7.300000000000000));
#339=VERTEX_POINT('',#338);
#340=CARTESIAN_POINT('',(-9.0,-20.0,7.300000000000000));
#341=DIRECTION('',(0.707106781186548,0.0,0.707106781186547));
#342=VECTOR('',#341,8.061017305526640);
#343=LINE('',#340,#342);
#344=EDGE_CURVE('',#339,#331,#343,.T.);
#345=ORIENTED_EDGE('',*,*,#344,.F.);
#346=CARTESIAN_POINT('',(-9.0,-20.0,5.750000000000001));
#347=DIRECTION('',(0.0,0.0,1.0));
#348=VECTOR('',#347,1.549999999999999);
#349=LINE('',#346,#348);
#350=EDGE_CURVE('',#278,#339,#349,.T.);
#351=ORIENTED_EDGE('',*,*,#350,.F.);
#352=EDGE_LOOP('',(#284,#290,#291,#292,#293,#294,#295,#296,#297,#305,#313,#321,#329,#337,#345,#351));
#353=FACE_OUTER_BOUND('',#352,.T.);
#354=ADVANCED_FACE('',(#353),#274,.F.);
#355=CARTESIAN_POINT('',(3.850000000000000,0.0,0.0));
#356=DIRECTION('',(1.0,0.0,0.0));
#357=DIRECTION('',(0.0,0.0,-1.0));
#358=AXIS2_PLACEMENT_3D('',#355,#356,#357);
#359=PLANE('',#358);
#360=CARTESIAN_POINT('',(3.850000000000000,20.0,5.750000000000001));
#361=VERTEX_POINT('',#360);
#362=CARTESIAN_POINT('',(3.850000000000000,20.0,-5.750000000000001));
#363=DIRECTION('',(0.0,0.0,1.0));
#364=VECTOR('',#363,11.500000000000002);
#365=LINE('',#362,#364);
#366=EDGE_CURVE('',#245,#361,#365,.T.);
#367=ORIENTED_EDGE('',*,*,#366,.T.);
#368=CARTESIAN_POINT('',(3.850000000000000,-20.0,5.750000000000001));
#369=DIRECTION('',(0.0,1.0,0.0));
#370=VECTOR('',#369,40.0);
#371=LINE('',#368,#370);
#372=EDGE_CURVE('',#299,#361,#371,.T.);
#373=ORIENTED_EDGE('',*,*,#372,.F.);
#374=ORIENTED_EDGE('',*,*,#304,.T.);
#375=ORIENTED_EDGE('',*,*,#258,.T.);
#376=EDGE_LOOP('',(#367,#373,#374,#375));
#377=FACE_OUTER_BOUND('',#376,.T.);
#378=ADVANCED_FACE('',(#377),#359,.T.);
#379=CARTESIAN_POINT('',(3.850000000000000,0.0,5.750000000000001));
#380=DIRECTION('',(0.0,0.0,-1.0));
#381=DIRECTION('',(-1.0,0.0,0.0));
#382=AXIS2_PLACEMENT_3D('',#379,#380,#381);
#383=PLANE('',#382);
#384=CARTESIAN_POINT('',(9.0,20.0,5.750000000000001));
#385=VERTEX_POINT('',#384);
#386=CARTESIAN_POINT('',(3.850000000000000,20.0,5.750000000000001));
#387=DIRECTION('',(1.0,0.0,0.0));
#388=VECTOR('',#387,5.150000000000000);
#389=LINE('',#386,#388);
#390=EDGE_CURVE('',#361,#385,#389,.T.);
#391=ORIENTED_EDGE('',*,*,#390,.T.);
#392=CARTESIAN_POINT('',(9.0,-20.0,5.750000000000001));
#393=DIRECTION('',(0.0,1.0,0.0));
#394=VECTOR('',#393,40.0);
#395=LINE('',#392,#394);
#396=EDGE_CURVE('',#307,#385,#395,.T.);
#397=ORIENTED_EDGE('',*,*,#396,.F.);
#398=ORIENTED_EDGE('',*,*,#312,.T.);
#399=ORIENTED_EDGE('',*,*,#372,.T.);
#400=EDGE_LOOP('',(#391,#397,#398,#399));
#401=FACE_OUTER_BOUND('',#400,.T.);
#402=ADVANCED_FACE('',(#401),#383,.T.);
#403=CARTESIAN_POINT('',(9.0,0.0,5.750000000000001));
#404=DIRECTION('',(1.0,0.0,0.0));
#405=DIRECTION('',(0.0,0.0,-1.0));
#406=AXIS2_PLACEMENT_3D('',#403,#404,#405);
#407=PLANE('',#406);
#408=CARTESIAN_POINT('',(9.0,20.0,7.300000000000000));
#409=VERTEX_POINT('',#408);
#410=CARTESIAN_POINT('',(9.0,20.0,5.750000000000001));
#411=DIRECTION('',(0.0,0.0,1.0));
#412=VECTOR('',#411,1.549999999999999);
#413=LINE('',#410,#412);
#414=EDGE_CURVE('',#385,#409,#413,.T.);
#415=ORIENTED_EDGE('',*,*,#414,.T.);
#416=CARTESIAN_POINT('',(9.0,-20.0,7.300000000000000));
#417=DIRECTION('',(0.0,1.0,0.0));
#418=VECTOR('',#417,40.0);
#419=LINE('',#416,#418);
#420=EDGE_CURVE('',#315,#409,#419,.T.);
#421=ORIENTED_EDGE('',*,*,#420,.F.);
#422=ORIENTED_EDGE('',*,*,#320,.T.);
#423=ORIENTED_EDGE('',*,*,#396,.T.);
#424=EDGE_LOOP('',(#415,#421,#422,#423));
#425=FACE_OUTER_BOUND('',#424,.T.);
#426=ADVANCED_FACE('',(#425),#407,.T.);
#427=CARTESIAN_POINT('',(9.0,0.0,7.300000000000000));
#428=DIRECTION('',(0.707106781186548,0.0,0.707106781186548));
#429=DIRECTION('',(0.707106781186548,0.0,-0.707106781186548));
#430=AXIS2_PLACEMENT_3D('',#427,#428,#429);
#431=PLANE('',#430);
#432=CARTESIAN_POINT('',(3.300000000000000,20.0,12.999999999999998));
#433=VERTEX_POINT('',#432);
#434=CARTESIAN_POINT('',(9.0,20.0,7.300000000000000));
#435=DIRECTION('',(-0.707106781186548,0.0,0.707106781186547));
#436=VECTOR('',#435,8.061017305526640);
#437=LINE('',#434,#436);
#438=EDGE_CURVE('',#409,#433,#437,.T.);
#439=ORIENTED_EDGE('',*,*,#438,.T.);
#440=CARTESIAN_POINT('',(3.300000000000000,-20.0,12.999999999999998));
#441=DIRECTION('',(0.0,1.0,0.0));
#442=VECTOR('',#441,40.0);
#443=LINE('',#440,#442);
#444=EDGE_CURVE('',#323,#433,#443,.T.);
#445=ORIENTED_EDGE('',*,*,#444,.F.);
#446=ORIENTED_EDGE('',*,*,#328,.T.);
#447=ORIENTED_EDGE('',*,*,#420,.T.);
#448=EDGE_LOOP('',(#439,#445,#446,#447));
#449=FACE_OUTER_BOUND('',#448,.T.);
#450=ADVANCED_FACE('',(#449),#431,.T.);
#451=CARTESIAN_POINT('',(3.300000000000000,0.0,12.999999999999998));
#452=DIRECTION('',(0.0,0.0,1.0));
#453=DIRECTION('',(1.0,0.0,0.0));
#454=AXIS2_PLACEMENT_3D('',#451,#452,#453);
#455=PLANE('',#454);
#456=CARTESIAN_POINT('',(-3.300000000000000,20.0,12.999999999999998));
#457=VERTEX_POINT('',#456);
#458=CARTESIAN_POINT('',(3.300000000000000,20.0,12.999999999999998));
#459=DIRECTION('',(-1.0,0.0,0.0));
#460=VECTOR('',#459,6.600000000000001);
#461=LINE('',#458,#460);
#462=EDGE_CURVE('',#433,#457,#461,.T.);
#463=ORIENTED_EDGE('',*,*,#462,.T.);
#464=CARTESIAN_POINT('',(-3.300000000000000,-20.0,12.999999999999998));
#465=DIRECTION('',(0.0,1.0,0.0));
#466=VECTOR('',#465,40.0);
#467=LINE('',#464,#466);
#468=EDGE_CURVE('',#331,#457,#467,.T.);
#469=ORIENTED_EDGE('',*,*,#468,.F.);
#470=ORIENTED_EDGE('',*,*,#336,.T.);
#471=ORIENTED_EDGE('',*,*,#444,.T.);
#472=EDGE_LOOP('',(#463,#469,#470,#471));
#473=FACE_OUTER_BOUND('',#472,.T.);
#474=ADVANCED_FACE('',(#473),#455,.T.);
#475=CARTESIAN_POINT('',(-3.300000000000000,0.0,12.999999999999998));
#476=DIRECTION('',(-0.707106781186548,0.0,0.707106781186548));
#477=DIRECTION('',(0.707106781186548,0.0,0.707106781186548));
#478=AXIS2_PLACEMENT_3D('',#475,#476,#477);
#479=PLANE('',#478);
#480=CARTESIAN_POINT('',(-9.0,20.0,7.300000000000000));
#481=VERTEX_POINT('',#480);
#482=CARTESIAN_POINT('',(-3.300000000000000,20.0,12.999999999999998));
#483=DIRECTION('',(-0.707106781186548,0.0,-0.707106781186547));
#484=VECTOR('',#483,8.061017305526640);
#485=LINE('',#482,#484);
#486=EDGE_CURVE('',#457,#481,#485,.T.);
#487=ORIENTED_EDGE('',*,*,#486,.T.);
#488=CARTESIAN_POINT('',(-9.0,-20.0,7.300000000000000));
#489=DIRECTION('',(0.0,1.0,0.0));
#490=VECTOR('',#489,40.0);
#491=LINE('',#488,#490);
#492=EDGE_CURVE('',#339,#481,#491,.T.);
#493=ORIENTED_EDGE('',*,*,#492,.F.);
#494=ORIENTED_EDGE('',*,*,#344,.T.);
#495=ORIENTED_EDGE('',*,*,#468,.T.);
#496=EDGE_LOOP('',(#487,#493,#494,#495));
#497=FACE_OUTER_BOUND('',#496,.T.);
#498=ADVANCED_FACE('',(#497),#479,.T.);
#499=CARTESIAN_POINT('',(-9.0,0.0,7.300000000000000));
#500=DIRECTION('',(-1.0,0.0,0.0));
#501=DIRECTION('',(0.0,0.0,1.0));
#502=AXIS2_PLACEMENT_3D('',#499,#500,#501);
#503=PLANE('',#502);
#504=CARTESIAN_POINT('',(-9.0,20.0,5.750000000000001));
#505=VERTEX_POINT('',#504);
#506=CARTESIAN_POINT('',(-9.0,20.0,7.300000000000000));
#507=DIRECTION('',(0.0,0.0,-1.0));
#508=VECTOR('',#507,1.549999999999999);
#509=LINE('',#506,#508);
#510=EDGE_CURVE('',#481,#505,#509,.T.);
#511=ORIENTED_EDGE('',*,*,#510,.T.);
#512=CARTESIAN_POINT('',(-9.0,-20.0,5.750000000000001));
#513=DIRECTION('',(0.0,1.0,0.0));
#514=VECTOR('',#513,40.0);
#515=LINE('',#512,#514);
#516=EDGE_CURVE('',#278,#505,#515,.T.);
#517=ORIENTED_EDGE('',*,*,#516,.F.);
#518=ORIENTED_EDGE('',*,*,#350,.T.);
#519=ORIENTED_EDGE('',*,*,#492,.T.);
#520=EDGE_LOOP('',(#511,#517,#518,#519));
#521=FACE_OUTER_BOUND('',#520,.T.);
#522=ADVANCED_FACE('',(#521),#503,.T.);
#523=CARTESIAN_POINT('',(-9.0,0.0,5.750000000000001));
#524=DIRECTION('',(0.0,0.0,-1.0));
#525=DIRECTION('',(-1.0,0.0,0.0));
#526=AXIS2_PLACEMENT_3D('',#523,#524,#525);
#527=PLANE('',#526);
#528=CARTESIAN_POINT('',(-3.850000000000000,20.0,5.750000000000001));
#529=VERTEX_POINT('',#528);
#530=CARTESIAN_POINT('',(-9.0,20.0,5.750000000000001));
#531=DIRECTION('',(1.0,0.0,0.0));
#532=VECTOR('',#531,5.150000000000000);
#533=LINE('',#530,#532);
#534=EDGE_CURVE('',#505,#529,#533,.T.);
#535=ORIENTED_EDGE('',*,*,#534,.T.);
#536=CARTESIAN_POINT('',(-3.850000000000000,-20.0,5.750000000000001));
#537=DIRECTION('',(0.0,1.0,0.0));
#538=VECTOR('',#537,40.0);
#539=LINE('',#536,#538);
#540=EDGE_CURVE('',#276,#529,#539,.T.);
#541=ORIENTED_EDGE('',*,*,#540,.F.);
#542=ORIENTED_EDGE('',*,*,#283,.T.);
#543=ORIENTED_EDGE('',*,*,#516,.T.);
#544=EDGE_LOOP('',(#535,#541,#542,#543));
#545=FACE_OUTER_BOUND('',#544,.T.);
#546=ADVANCED_FACE('',(#545),#527,.T.);
#547=CARTESIAN_POINT('',(-3.850000000000000,0.0,5.750000000000001));
#548=DIRECTION('',(-1.0,0.0,0.0));
#549=DIRECTION('',(0.0,0.0,1.0));
#550=AXIS2_PLACEMENT_3D('',#547,#548,#549);
#551=PLANE('',#550);
#552=CARTESIAN_POINT('',(-3.850000000000000,20.0,5.750000000000001));
#553=DIRECTION('',(0.0,0.0,-1.0));
#554=VECTOR('',#553,11.500000000000002);
#555=LINE('',#552,#554);
#556=EDGE_CURVE('',#529,#50,#555,.T.);
#557=ORIENTED_EDGE('',*,*,#556,.T.);
#558=ORIENTED_EDGE('',*,*,#79,.F.);
#559=ORIENTED_EDGE('',*,*,#289,.T.);
#560=ORIENTED_EDGE('',*,*,#540,.T.);
#561=EDGE_LOOP('',(#557,#558,#559,#560));
#562=FACE_OUTER_BOUND('',#561,.T.);
#563=ADVANCED_FACE('',(#562),#551,.T.);
#564=CARTESIAN_POINT('',(-4.022858E-016,20.0,6.542667019514732));
#565=DIRECTION('',(0.0,1.0,0.0));
#566=DIRECTION('',(0.0,0.0,1.0));
#567=AXIS2_PLACEMENT_3D('',#564,#565,#566);
#568=PLANE('',#567);
#569=ORIENTED_EDGE('',*,*,#556,.F.);
#570=ORIENTED_EDGE('',*,*,#534,.F.);
#571=ORIENTED_EDGE('',*,*,#510,.F.);
#572=ORIENTED_EDGE('',*,*,#486,.F.);
#573=ORIENTED_EDGE('',*,*,#462,.F.);
#574=ORIENTED_EDGE('',*,*,#438,.F.);
#575=ORIENTED_EDGE('',*,*,#414,.F.);
#576=ORIENTED_EDGE('',*,*,#390,.F.);
#577=ORIENTED_EDGE('',*,*,#366,.F.);
#578=ORIENTED_EDGE('',*,*,#250,.F.);
#579=ORIENTED_EDGE('',*,*,#219,.F.);
#580=ORIENTED_EDGE('',*,*,#188,.F.);
#581=ORIENTED_EDGE('',*,*,#157,.F.);
#582=ORIENTED_EDGE('',*,*,#126,.F.);
#583=ORIENTED_EDGE('',*,*,#95,.F.);
#584=ORIENTED_EDGE('',*,*,#57,.F.);
#585=EDGE_LOOP('',(#569,#570,#571,#572,#573,#574,#575,#576,#577,#578,#579,#580,#581,#582,#583,#584));
#586=FACE_OUTER_BOUND('',#585,.T.);
#587=ADVANCED_FACE('',(#586),#568,.T.);
#588=CLOSED_SHELL('',(#83,#114,#145,#176,#207,#238,#269,#354,#378,#402,#426,#450,#474,#498,#522,#546,#563,#587));
#589=MANIFOLD_SOLID_BREP('',#588);
#590=COLOUR_RGB('Schwarz',0.321568638086319,0.321568638086319,0.321568638086319);
#591=FILL_AREA_STYLE_COLOUR('Schwarz',#590);
#592=FILL_AREA_STYLE('Schwarz',(#591));
#593=SURFACE_STYLE_FILL_AREA(#592);
#594=SURFACE_SIDE_STYLE('Schwarz',(#593));
#595=SURFACE_STYLE_USAGE(.BOTH.,#594);
#596=PRESENTATION_STYLE_ASSIGNMENT((#595));
#597=STYLED_ITEM('',(#596),#589);
#598=MECHANICAL_DESIGN_GEOMETRIC_PRESENTATION_REPRESENTATION('',(#597),#36);
#599=ADVANCED_BREP_SHAPE_REPRESENTATION('ABSR',(#589),#36);
#600=SHAPE_REPRESENTATION_RELATIONSHIP('SRR','None',#599,#41);
ENDSEC;
END-ISO-10303-21;
