ISO-10303-21;
HEADER;
/* Generated by software containing ST-Developer
 * from STEP Tools, Inc. (www.steptools.com) 
 */

FILE_DESCRIPTION(
/* description */ (''),
/* implementation_level */ '2;1');

FILE_NAME(
/* name */ 
'X:\\VIRI ZA WEB\\CAD DATOTEKE\\ELEKTRI\X2\010C\X0\NI CILINDRI PNCE\\D
ODATNA OPREMA ELEKTRI\X2\010C\X0\NI CILINDRI\\PRITRDILA\\LZ\\izvoz\\CA
D_8139.stp',
/* time_stamp */ '2016-06-07T16:08:13+02:00',
/* author */ ('Hypex'),
/* organization */ ('Hypex'),
/* preprocessor_version */ 'ST-DEVELOPER v16.1',
/* originating_system */ 'Autodesk Inventor 2016',
/* authorisation */ '');

FILE_SCHEMA (('AUTOMOTIVE_DESIGN { 1 0 10303 214 3 1 1 }'));
ENDSEC;

DATA;
#10=MECHANICAL_DESIGN_GEOMETRIC_PRESENTATION_REPRESENTATION('',(#232,#222,
#224,#230,#226,#227,#223,#225,#229,#231,#228,#218,#220,#221,#217,#219),
#408);
#11=SHAPE_REPRESENTATION_RELATIONSHIP('SRR','None',#417,#12);
#12=ADVANCED_BREP_SHAPE_REPRESENTATION('',(#13),#407);
#13=MANIFOLD_SOLID_BREP('Solid1',#248);
#14=LINE('',#382,#26);
#15=LINE('',#384,#27);
#16=LINE('',#386,#28);
#17=LINE('',#387,#29);
#18=LINE('',#390,#30);
#19=LINE('',#392,#31);
#20=LINE('',#393,#32);
#21=LINE('',#396,#33);
#22=LINE('',#398,#34);
#23=LINE('',#399,#35);
#24=LINE('',#401,#36);
#25=LINE('',#402,#37);
#26=VECTOR('',#323,30.);
#27=VECTOR('',#324,15.);
#28=VECTOR('',#325,30.);
#29=VECTOR('',#326,15.);
#30=VECTOR('',#329,46.);
#31=VECTOR('',#330,15.);
#32=VECTOR('',#331,46.);
#33=VECTOR('',#334,30.);
#34=VECTOR('',#335,15.);
#35=VECTOR('',#336,30.);
#36=VECTOR('',#339,46.);
#37=VECTOR('',#340,46.);
#38=PLANE('',#256);
#39=PLANE('',#257);
#40=PLANE('',#260);
#41=PLANE('',#271);
#42=PLANE('',#272);
#43=PLANE('',#273);
#44=PLANE('',#274);
#45=PLANE('',#275);
#46=PLANE('',#276);
#47=FACE_BOUND('',#78,.T.);
#48=FACE_BOUND('',#80,.T.);
#49=FACE_BOUND('',#82,.T.);
#50=FACE_BOUND('',#84,.T.);
#51=FACE_BOUND('',#86,.T.);
#52=FACE_BOUND('',#88,.T.);
#53=FACE_BOUND('',#90,.T.);
#54=FACE_BOUND('',#92,.T.);
#55=FACE_BOUND('',#94,.T.);
#56=FACE_BOUND('',#97,.T.);
#57=FACE_BOUND('',#98,.T.);
#58=FACE_BOUND('',#101,.T.);
#59=FACE_BOUND('',#102,.T.);
#60=FACE_BOUND('',#104,.T.);
#61=FACE_BOUND('',#106,.T.);
#62=FACE_OUTER_BOUND('',#77,.T.);
#63=FACE_OUTER_BOUND('',#79,.T.);
#64=FACE_OUTER_BOUND('',#81,.T.);
#65=FACE_OUTER_BOUND('',#83,.T.);
#66=FACE_OUTER_BOUND('',#85,.T.);
#67=FACE_OUTER_BOUND('',#87,.T.);
#68=FACE_OUTER_BOUND('',#89,.T.);
#69=FACE_OUTER_BOUND('',#91,.T.);
#70=FACE_OUTER_BOUND('',#93,.T.);
#71=FACE_OUTER_BOUND('',#95,.T.);
#72=FACE_OUTER_BOUND('',#96,.T.);
#73=FACE_OUTER_BOUND('',#99,.T.);
#74=FACE_OUTER_BOUND('',#100,.T.);
#75=FACE_OUTER_BOUND('',#103,.T.);
#76=FACE_OUTER_BOUND('',#105,.T.);
#77=EDGE_LOOP('',(#163));
#78=EDGE_LOOP('',(#164));
#79=EDGE_LOOP('',(#165));
#80=EDGE_LOOP('',(#166));
#81=EDGE_LOOP('',(#167));
#82=EDGE_LOOP('',(#168));
#83=EDGE_LOOP('',(#169));
#84=EDGE_LOOP('',(#170));
#85=EDGE_LOOP('',(#171));
#86=EDGE_LOOP('',(#172));
#87=EDGE_LOOP('',(#173));
#88=EDGE_LOOP('',(#174));
#89=EDGE_LOOP('',(#175));
#90=EDGE_LOOP('',(#176));
#91=EDGE_LOOP('',(#177));
#92=EDGE_LOOP('',(#178));
#93=EDGE_LOOP('',(#179));
#94=EDGE_LOOP('',(#180));
#95=EDGE_LOOP('',(#181,#182,#183,#184));
#96=EDGE_LOOP('',(#185,#186,#187,#188));
#97=EDGE_LOOP('',(#189));
#98=EDGE_LOOP('',(#190));
#99=EDGE_LOOP('',(#191,#192,#193,#194));
#100=EDGE_LOOP('',(#195,#196,#197,#198));
#101=EDGE_LOOP('',(#199));
#102=EDGE_LOOP('',(#200));
#103=EDGE_LOOP('',(#201,#202,#203,#204));
#104=EDGE_LOOP('',(#205));
#105=EDGE_LOOP('',(#206,#207,#208,#209));
#106=EDGE_LOOP('',(#210));
#107=CIRCLE('',#251,11.);
#108=CIRCLE('',#252,11.);
#109=CIRCLE('',#254,6.);
#110=CIRCLE('',#255,6.);
#111=CIRCLE('',#258,5.5);
#112=CIRCLE('',#259,3.3);
#113=CIRCLE('',#261,5.5);
#114=CIRCLE('',#262,3.3);
#115=CIRCLE('',#264,5.5);
#116=CIRCLE('',#266,3.3);
#117=CIRCLE('',#268,5.5);
#118=CIRCLE('',#270,3.3);
#119=VERTEX_POINT('',#347);
#120=VERTEX_POINT('',#349);
#121=VERTEX_POINT('',#352);
#122=VERTEX_POINT('',#354);
#123=VERTEX_POINT('',#358);
#124=VERTEX_POINT('',#360);
#125=VERTEX_POINT('',#363);
#126=VERTEX_POINT('',#365);
#127=VERTEX_POINT('',#368);
#128=VERTEX_POINT('',#371);
#129=VERTEX_POINT('',#374);
#130=VERTEX_POINT('',#377);
#131=VERTEX_POINT('',#380);
#132=VERTEX_POINT('',#381);
#133=VERTEX_POINT('',#383);
#134=VERTEX_POINT('',#385);
#135=VERTEX_POINT('',#389);
#136=VERTEX_POINT('',#391);
#137=VERTEX_POINT('',#395);
#138=VERTEX_POINT('',#397);
#139=EDGE_CURVE('',#119,#119,#107,.T.);
#140=EDGE_CURVE('',#120,#120,#108,.T.);
#141=EDGE_CURVE('',#121,#121,#109,.T.);
#142=EDGE_CURVE('',#122,#122,#110,.T.);
#143=EDGE_CURVE('',#123,#123,#111,.T.);
#144=EDGE_CURVE('',#124,#124,#112,.T.);
#145=EDGE_CURVE('',#125,#125,#113,.T.);
#146=EDGE_CURVE('',#126,#126,#114,.T.);
#147=EDGE_CURVE('',#127,#127,#115,.T.);
#148=EDGE_CURVE('',#128,#128,#116,.T.);
#149=EDGE_CURVE('',#129,#129,#117,.T.);
#150=EDGE_CURVE('',#130,#130,#118,.T.);
#151=EDGE_CURVE('',#131,#132,#14,.T.);
#152=EDGE_CURVE('',#133,#132,#15,.T.);
#153=EDGE_CURVE('',#134,#133,#16,.T.);
#154=EDGE_CURVE('',#134,#131,#17,.T.);
#155=EDGE_CURVE('',#132,#135,#18,.T.);
#156=EDGE_CURVE('',#136,#135,#19,.T.);
#157=EDGE_CURVE('',#133,#136,#20,.T.);
#158=EDGE_CURVE('',#135,#137,#21,.T.);
#159=EDGE_CURVE('',#138,#137,#22,.T.);
#160=EDGE_CURVE('',#136,#138,#23,.T.);
#161=EDGE_CURVE('',#137,#131,#24,.T.);
#162=EDGE_CURVE('',#138,#134,#25,.T.);
#163=ORIENTED_EDGE('',*,*,#139,.F.);
#164=ORIENTED_EDGE('',*,*,#140,.T.);
#165=ORIENTED_EDGE('',*,*,#141,.F.);
#166=ORIENTED_EDGE('',*,*,#142,.T.);
#167=ORIENTED_EDGE('',*,*,#140,.F.);
#168=ORIENTED_EDGE('',*,*,#141,.T.);
#169=ORIENTED_EDGE('',*,*,#143,.F.);
#170=ORIENTED_EDGE('',*,*,#144,.F.);
#171=ORIENTED_EDGE('',*,*,#145,.F.);
#172=ORIENTED_EDGE('',*,*,#146,.F.);
#173=ORIENTED_EDGE('',*,*,#145,.T.);
#174=ORIENTED_EDGE('',*,*,#147,.F.);
#175=ORIENTED_EDGE('',*,*,#146,.T.);
#176=ORIENTED_EDGE('',*,*,#148,.F.);
#177=ORIENTED_EDGE('',*,*,#143,.T.);
#178=ORIENTED_EDGE('',*,*,#149,.F.);
#179=ORIENTED_EDGE('',*,*,#144,.T.);
#180=ORIENTED_EDGE('',*,*,#150,.F.);
#181=ORIENTED_EDGE('',*,*,#151,.T.);
#182=ORIENTED_EDGE('',*,*,#152,.F.);
#183=ORIENTED_EDGE('',*,*,#153,.F.);
#184=ORIENTED_EDGE('',*,*,#154,.T.);
#185=ORIENTED_EDGE('',*,*,#155,.T.);
#186=ORIENTED_EDGE('',*,*,#156,.F.);
#187=ORIENTED_EDGE('',*,*,#157,.F.);
#188=ORIENTED_EDGE('',*,*,#152,.T.);
#189=ORIENTED_EDGE('',*,*,#148,.T.);
#190=ORIENTED_EDGE('',*,*,#150,.T.);
#191=ORIENTED_EDGE('',*,*,#158,.T.);
#192=ORIENTED_EDGE('',*,*,#159,.F.);
#193=ORIENTED_EDGE('',*,*,#160,.F.);
#194=ORIENTED_EDGE('',*,*,#156,.T.);
#195=ORIENTED_EDGE('',*,*,#161,.T.);
#196=ORIENTED_EDGE('',*,*,#154,.F.);
#197=ORIENTED_EDGE('',*,*,#162,.F.);
#198=ORIENTED_EDGE('',*,*,#159,.T.);
#199=ORIENTED_EDGE('',*,*,#147,.T.);
#200=ORIENTED_EDGE('',*,*,#149,.T.);
#201=ORIENTED_EDGE('',*,*,#151,.F.);
#202=ORIENTED_EDGE('',*,*,#161,.F.);
#203=ORIENTED_EDGE('',*,*,#158,.F.);
#204=ORIENTED_EDGE('',*,*,#155,.F.);
#205=ORIENTED_EDGE('',*,*,#139,.T.);
#206=ORIENTED_EDGE('',*,*,#162,.T.);
#207=ORIENTED_EDGE('',*,*,#153,.T.);
#208=ORIENTED_EDGE('',*,*,#157,.T.);
#209=ORIENTED_EDGE('',*,*,#160,.T.);
#210=ORIENTED_EDGE('',*,*,#142,.F.);
#211=CYLINDRICAL_SURFACE('',#250,11.);
#212=CYLINDRICAL_SURFACE('',#253,6.);
#213=CYLINDRICAL_SURFACE('',#263,5.5);
#214=CYLINDRICAL_SURFACE('',#265,3.3);
#215=CYLINDRICAL_SURFACE('',#267,5.5);
#216=CYLINDRICAL_SURFACE('',#269,3.3);
#217=STYLED_ITEM('',(#427),#233);
#218=STYLED_ITEM('',(#427),#234);
#219=STYLED_ITEM('',(#427),#235);
#220=STYLED_ITEM('',(#427),#236);
#221=STYLED_ITEM('',(#427),#237);
#222=STYLED_ITEM('',(#427),#238);
#223=STYLED_ITEM('',(#427),#239);
#224=STYLED_ITEM('',(#427),#240);
#225=STYLED_ITEM('',(#427),#241);
#226=STYLED_ITEM('',(#427),#242);
#227=STYLED_ITEM('',(#427),#243);
#228=STYLED_ITEM('',(#427),#244);
#229=STYLED_ITEM('',(#427),#245);
#230=STYLED_ITEM('',(#427),#246);
#231=STYLED_ITEM('',(#427),#247);
#232=STYLED_ITEM('',(#426),#13);
#233=ADVANCED_FACE('',(#62,#47),#211,.T.);
#234=ADVANCED_FACE('',(#63,#48),#212,.F.);
#235=ADVANCED_FACE('',(#64,#49),#38,.T.);
#236=ADVANCED_FACE('',(#65,#50),#39,.T.);
#237=ADVANCED_FACE('',(#66,#51),#40,.T.);
#238=ADVANCED_FACE('',(#67,#52),#213,.F.);
#239=ADVANCED_FACE('',(#68,#53),#214,.F.);
#240=ADVANCED_FACE('',(#69,#54),#215,.F.);
#241=ADVANCED_FACE('',(#70,#55),#216,.F.);
#242=ADVANCED_FACE('',(#71),#41,.T.);
#243=ADVANCED_FACE('',(#72,#56,#57),#42,.T.);
#244=ADVANCED_FACE('',(#73),#43,.T.);
#245=ADVANCED_FACE('',(#74,#58,#59),#44,.T.);
#246=ADVANCED_FACE('',(#75,#60),#45,.T.);
#247=ADVANCED_FACE('',(#76,#61),#46,.F.);
#248=CLOSED_SHELL('',(#233,#234,#235,#236,#237,#238,#239,#240,#241,#242,
#243,#244,#245,#246,#247));
#249=AXIS2_PLACEMENT_3D('placement',#345,#277,#278);
#250=AXIS2_PLACEMENT_3D('',#346,#279,#280);
#251=AXIS2_PLACEMENT_3D('',#348,#281,#282);
#252=AXIS2_PLACEMENT_3D('',#350,#283,#284);
#253=AXIS2_PLACEMENT_3D('',#351,#285,#286);
#254=AXIS2_PLACEMENT_3D('',#353,#287,#288);
#255=AXIS2_PLACEMENT_3D('',#355,#289,#290);
#256=AXIS2_PLACEMENT_3D('',#356,#291,#292);
#257=AXIS2_PLACEMENT_3D('',#357,#293,#294);
#258=AXIS2_PLACEMENT_3D('',#359,#295,#296);
#259=AXIS2_PLACEMENT_3D('',#361,#297,#298);
#260=AXIS2_PLACEMENT_3D('',#362,#299,#300);
#261=AXIS2_PLACEMENT_3D('',#364,#301,#302);
#262=AXIS2_PLACEMENT_3D('',#366,#303,#304);
#263=AXIS2_PLACEMENT_3D('',#367,#305,#306);
#264=AXIS2_PLACEMENT_3D('',#369,#307,#308);
#265=AXIS2_PLACEMENT_3D('',#370,#309,#310);
#266=AXIS2_PLACEMENT_3D('',#372,#311,#312);
#267=AXIS2_PLACEMENT_3D('',#373,#313,#314);
#268=AXIS2_PLACEMENT_3D('',#375,#315,#316);
#269=AXIS2_PLACEMENT_3D('',#376,#317,#318);
#270=AXIS2_PLACEMENT_3D('',#378,#319,#320);
#271=AXIS2_PLACEMENT_3D('',#379,#321,#322);
#272=AXIS2_PLACEMENT_3D('',#388,#327,#328);
#273=AXIS2_PLACEMENT_3D('',#394,#332,#333);
#274=AXIS2_PLACEMENT_3D('',#400,#337,#338);
#275=AXIS2_PLACEMENT_3D('',#403,#341,#342);
#276=AXIS2_PLACEMENT_3D('',#404,#343,#344);
#277=DIRECTION('axis',(0.,0.,1.));
#278=DIRECTION('refdir',(1.,0.,0.));
#279=DIRECTION('center_axis',(1.66037477153582E-16,0.,-1.));
#280=DIRECTION('ref_axis',(1.,0.,0.));
#281=DIRECTION('center_axis',(0.,0.,-1.));
#282=DIRECTION('ref_axis',(1.,0.,0.));
#283=DIRECTION('center_axis',(1.66037477153582E-16,0.,-1.));
#284=DIRECTION('ref_axis',(1.,0.,0.));
#285=DIRECTION('center_axis',(1.66037477153582E-16,0.,-1.));
#286=DIRECTION('ref_axis',(1.,0.,0.));
#287=DIRECTION('center_axis',(1.66037477153582E-16,0.,-1.));
#288=DIRECTION('ref_axis',(1.,0.,0.));
#289=DIRECTION('center_axis',(1.66037477153582E-16,0.,-1.));
#290=DIRECTION('ref_axis',(1.,0.,0.));
#291=DIRECTION('center_axis',(-1.66037477153582E-16,0.,1.));
#292=DIRECTION('ref_axis',(0.,-1.,0.));
#293=DIRECTION('center_axis',(0.,1.,0.));
#294=DIRECTION('ref_axis',(0.,0.,1.));
#295=DIRECTION('center_axis',(0.,-1.,0.));
#296=DIRECTION('ref_axis',(-1.,0.,0.));
#297=DIRECTION('center_axis',(0.,1.,0.));
#298=DIRECTION('ref_axis',(1.,0.,0.));
#299=DIRECTION('center_axis',(0.,1.,0.));
#300=DIRECTION('ref_axis',(0.,0.,1.));
#301=DIRECTION('center_axis',(0.,-1.,0.));
#302=DIRECTION('ref_axis',(-1.,0.,0.));
#303=DIRECTION('center_axis',(0.,1.,0.));
#304=DIRECTION('ref_axis',(1.,0.,0.));
#305=DIRECTION('center_axis',(0.,1.,0.));
#306=DIRECTION('ref_axis',(1.,0.,0.));
#307=DIRECTION('center_axis',(0.,-1.,0.));
#308=DIRECTION('ref_axis',(1.,0.,0.));
#309=DIRECTION('center_axis',(0.,1.,0.));
#310=DIRECTION('ref_axis',(1.,0.,0.));
#311=DIRECTION('center_axis',(0.,1.,0.));
#312=DIRECTION('ref_axis',(1.,0.,0.));
#313=DIRECTION('center_axis',(0.,1.,0.));
#314=DIRECTION('ref_axis',(1.,0.,0.));
#315=DIRECTION('center_axis',(0.,-1.,0.));
#316=DIRECTION('ref_axis',(1.,0.,0.));
#317=DIRECTION('center_axis',(0.,1.,0.));
#318=DIRECTION('ref_axis',(1.,0.,0.));
#319=DIRECTION('center_axis',(0.,1.,0.));
#320=DIRECTION('ref_axis',(1.,0.,0.));
#321=DIRECTION('center_axis',(1.,0.,0.));
#322=DIRECTION('ref_axis',(0.,0.,-1.));
#323=DIRECTION('',(0.,-1.,0.));
#324=DIRECTION('',(0.,0.,1.));
#325=DIRECTION('',(0.,-1.,0.));
#326=DIRECTION('',(0.,0.,1.));
#327=DIRECTION('center_axis',(0.,-1.,0.));
#328=DIRECTION('ref_axis',(0.,0.,-1.));
#329=DIRECTION('',(-1.,0.,0.));
#330=DIRECTION('',(0.,0.,1.));
#331=DIRECTION('',(-1.,0.,0.));
#332=DIRECTION('center_axis',(-1.,0.,0.));
#333=DIRECTION('ref_axis',(0.,0.,1.));
#334=DIRECTION('',(0.,1.,0.));
#335=DIRECTION('',(0.,0.,1.));
#336=DIRECTION('',(0.,1.,0.));
#337=DIRECTION('center_axis',(0.,1.,0.));
#338=DIRECTION('ref_axis',(0.,0.,1.));
#339=DIRECTION('',(1.,0.,0.));
#340=DIRECTION('',(1.,0.,0.));
#341=DIRECTION('center_axis',(0.,0.,1.));
#342=DIRECTION('ref_axis',(1.,0.,0.));
#343=DIRECTION('center_axis',(0.,0.,1.));
#344=DIRECTION('ref_axis',(1.,0.,0.));
#345=CARTESIAN_POINT('',(0.,0.,0.));
#346=CARTESIAN_POINT('Origin',(-8.5859370721737,17.6654411864001,16.5));
#347=CARTESIAN_POINT('',(2.41406292782631,17.6654411864001,15.));
#348=CARTESIAN_POINT('Origin',(-8.5859370721737,17.6654411864001,15.));
#349=CARTESIAN_POINT('',(2.41406292782631,17.6654411864001,18.));
#350=CARTESIAN_POINT('Origin',(-8.5859370721737,17.6654411864001,18.));
#351=CARTESIAN_POINT('Origin',(-8.58593707217369,17.6654411864001,9.));
#352=CARTESIAN_POINT('',(-2.5859370721737,17.6654411864001,18.));
#353=CARTESIAN_POINT('Origin',(-8.5859370721737,17.6654411864001,18.));
#354=CARTESIAN_POINT('',(-2.58593707217369,17.6654411864001,0.));
#355=CARTESIAN_POINT('Origin',(-8.58593707217369,17.6654411864001,0.));
#356=CARTESIAN_POINT('Origin',(-0.0859370721736941,17.6654411864001,18.));
#357=CARTESIAN_POINT('Origin',(7.41406292782631,25.6654411864001,7.5));
#358=CARTESIAN_POINT('',(12.9140629278263,25.6654411864001,7.5));
#359=CARTESIAN_POINT('Origin',(7.41406292782631,25.6654411864001,7.5));
#360=CARTESIAN_POINT('',(10.7140629278263,25.6654411864001,7.5));
#361=CARTESIAN_POINT('Origin',(7.41406292782631,25.6654411864001,7.5));
#362=CARTESIAN_POINT('Origin',(-24.5859370721737,25.6654411864001,7.5));
#363=CARTESIAN_POINT('',(-19.0859370721737,25.6654411864001,7.5));
#364=CARTESIAN_POINT('Origin',(-24.5859370721737,25.6654411864001,7.5));
#365=CARTESIAN_POINT('',(-21.2859370721737,25.6654411864001,7.5));
#366=CARTESIAN_POINT('Origin',(-24.5859370721737,25.6654411864001,7.5));
#367=CARTESIAN_POINT('Origin',(-24.5859370721737,29.4654411864001,7.5));
#368=CARTESIAN_POINT('',(-19.0859370721737,32.6654411864001,7.5));
#369=CARTESIAN_POINT('Origin',(-24.5859370721737,32.6654411864001,7.5));
#370=CARTESIAN_POINT('Origin',(-24.5859370721737,-24.264340123561,7.5));
#371=CARTESIAN_POINT('',(-27.8859370721737,2.66544118640013,7.5));
#372=CARTESIAN_POINT('Origin',(-24.5859370721737,2.66544118640013,7.5));
#373=CARTESIAN_POINT('Origin',(7.41406292782631,29.4654411864001,7.5));
#374=CARTESIAN_POINT('',(12.9140629278263,32.6654411864001,7.5));
#375=CARTESIAN_POINT('Origin',(7.41406292782631,32.6654411864001,7.5));
#376=CARTESIAN_POINT('Origin',(7.41406292782631,-24.264340123561,7.5));
#377=CARTESIAN_POINT('',(4.11406292782631,2.66544118640013,7.5));
#378=CARTESIAN_POINT('Origin',(7.41406292782631,2.66544118640013,7.5));
#379=CARTESIAN_POINT('Origin',(14.4140629278263,32.6654411864001,0.));
#380=CARTESIAN_POINT('',(14.4140629278263,32.6654411864001,15.));
#381=CARTESIAN_POINT('',(14.4140629278263,2.66544118640013,15.));
#382=CARTESIAN_POINT('',(14.4140629278263,32.6654411864001,15.));
#383=CARTESIAN_POINT('',(14.4140629278263,2.66544118640013,0.));
#384=CARTESIAN_POINT('',(14.4140629278263,2.66544118640013,0.));
#385=CARTESIAN_POINT('',(14.4140629278263,32.6654411864001,0.));
#386=CARTESIAN_POINT('',(14.4140629278263,32.6654411864001,0.));
#387=CARTESIAN_POINT('',(14.4140629278263,32.6654411864001,0.));
#388=CARTESIAN_POINT('Origin',(14.4140629278263,2.66544118640013,0.));
#389=CARTESIAN_POINT('',(-31.5859370721737,2.66544118640013,15.));
#390=CARTESIAN_POINT('',(14.4140629278263,2.66544118640013,15.));
#391=CARTESIAN_POINT('',(-31.5859370721737,2.66544118640013,0.));
#392=CARTESIAN_POINT('',(-31.5859370721737,2.66544118640013,0.));
#393=CARTESIAN_POINT('',(14.4140629278263,2.66544118640013,0.));
#394=CARTESIAN_POINT('Origin',(-31.5859370721737,2.66544118640013,0.));
#395=CARTESIAN_POINT('',(-31.5859370721737,32.6654411864001,15.));
#396=CARTESIAN_POINT('',(-31.5859370721737,2.66544118640013,15.));
#397=CARTESIAN_POINT('',(-31.5859370721737,32.6654411864001,0.));
#398=CARTESIAN_POINT('',(-31.5859370721737,32.6654411864001,0.));
#399=CARTESIAN_POINT('',(-31.5859370721737,2.66544118640013,0.));
#400=CARTESIAN_POINT('Origin',(-31.5859370721737,32.6654411864001,0.));
#401=CARTESIAN_POINT('',(-31.5859370721737,32.6654411864001,15.));
#402=CARTESIAN_POINT('',(-31.5859370721737,32.6654411864001,0.));
#403=CARTESIAN_POINT('Origin',(-8.5859370721737,17.6654411864001,15.));
#404=CARTESIAN_POINT('Origin',(-8.5859370721737,17.6654411864001,0.));
#405=UNCERTAINTY_MEASURE_WITH_UNIT(LENGTH_MEASURE(0.01),#409,
'DISTANCE_ACCURACY_VALUE',
'Maximum model space distance between geometric entities at asserted c
onnectivities');
#406=UNCERTAINTY_MEASURE_WITH_UNIT(LENGTH_MEASURE(1.E-6),#409,
'DISTANCE_ACCURACY_VALUE',
'Maximum model space distance between geometric entities at asserted c
onnectivities');
#407=(
GEOMETRIC_REPRESENTATION_CONTEXT(3)
GLOBAL_UNCERTAINTY_ASSIGNED_CONTEXT((#405))
GLOBAL_UNIT_ASSIGNED_CONTEXT((#409,#412,#410))
REPRESENTATION_CONTEXT('','3D')
);
#408=(
GEOMETRIC_REPRESENTATION_CONTEXT(3)
GLOBAL_UNCERTAINTY_ASSIGNED_CONTEXT((#406))
GLOBAL_UNIT_ASSIGNED_CONTEXT((#409,#412,#410))
REPRESENTATION_CONTEXT('','3D')
);
#409=(
LENGTH_UNIT()
NAMED_UNIT(*)
SI_UNIT(.MILLI.,.METRE.)
);
#410=(
NAMED_UNIT(*)
SI_UNIT($,.STERADIAN.)
SOLID_ANGLE_UNIT()
);
#411=DIMENSIONAL_EXPONENTS(0.,0.,0.,0.,0.,0.,0.);
#412=(
CONVERSION_BASED_UNIT('degree',#414)
NAMED_UNIT(#411)
PLANE_ANGLE_UNIT()
);
#413=(
NAMED_UNIT(*)
PLANE_ANGLE_UNIT()
SI_UNIT($,.RADIAN.)
);
#414=PLANE_ANGLE_MEASURE_WITH_UNIT(PLANE_ANGLE_MEASURE(0.01745329252),#413);
#415=SHAPE_DEFINITION_REPRESENTATION(#416,#417);
#416=PRODUCT_DEFINITION_SHAPE('',$,#419);
#417=SHAPE_REPRESENTATION('',(#249),#407);
#418=PRODUCT_DEFINITION_CONTEXT('part definition',#423,'design');
#419=PRODUCT_DEFINITION('CAD_8139','CAD_8139',#420,#418);
#420=PRODUCT_DEFINITION_FORMATION('',$,#425);
#421=PRODUCT_RELATED_PRODUCT_CATEGORY('CAD_8139','CAD_8139',(#425));
#422=APPLICATION_PROTOCOL_DEFINITION('international standard',
'automotive_design',2009,#423);
#423=APPLICATION_CONTEXT(
'Core Data for Automotive Mechanical Design Process');
#424=PRODUCT_CONTEXT('part definition',#423,'mechanical');
#425=PRODUCT('CAD_8139','CAD_8139',$,(#424));
#426=PRESENTATION_STYLE_ASSIGNMENT((#428));
#427=PRESENTATION_STYLE_ASSIGNMENT((#429));
#428=SURFACE_STYLE_USAGE(.BOTH.,#430);
#429=SURFACE_STYLE_USAGE(.BOTH.,#431);
#430=SURFACE_SIDE_STYLE('',(#432));
#431=SURFACE_SIDE_STYLE('',(#433));
#432=SURFACE_STYLE_FILL_AREA(#434);
#433=SURFACE_STYLE_FILL_AREA(#435);
#434=FILL_AREA_STYLE('',(#436));
#435=FILL_AREA_STYLE('',(#437));
#436=FILL_AREA_STYLE_COLOUR('',#438);
#437=FILL_AREA_STYLE_COLOUR('',#439);
#438=COLOUR_RGB('',0.87843137254902,0.874509803921569,0.858823529411765);
#439=COLOUR_RGB('',0.63921568627451,0.63921568627451,0.686274509803922);
ENDSEC;
END-ISO-10303-21;
