ISO-10303-21;
HEADER;
/****************************************************************
 * Generated by software with PDE/Lib inside                    *
 * PDElib Version v51a, created 12/06/2005 Tue                  *
 * International Technegroup Inc. (www.iti-oh.com)              *
 ****************************************************************/
FILE_DESCRIPTION((''),'2;1');
FILE_NAME('SV2000V.stp','2009-11-25T09:49:05',(''),(''),'Mechanical Desktop 2007','Mechanical Desktop 2007',', , ');
FILE_SCHEMA(('CONFIG_CONTROL_DESIGN'));
ENDSEC;
DATA;
#8=(NAMED_UNIT(*)PLANE_ANGLE_UNIT()SI_UNIT($,.RADIAN.));
#9=DIMENSIONAL_EXPONENTS(0.0,0.0,0.0,0.0,0.0,0.0,0.0);
#10=PLANE_ANGLE_MEASURE_WITH_UNIT(PLANE_ANGLE_MEASURE(0.017453292500000),#8);
#14=(CONVERSION_BASED_UNIT('DEGREE',#10)NAMED_UNIT(#9)PLANE_ANGLE_UNIT());
#18=(NAMED_UNIT(*)SI_UNIT($,.STERADIAN.)SOLID_ANGLE_UNIT());
#22=(LENGTH_UNIT()NAMED_UNIT(*)SI_UNIT(.MILLI.,.METRE.));
#23=UNCERTAINTY_MEASURE_WITH_UNIT(LENGTH_MEASURE(0.000001000000000),#22,'DISTANCE_ACCURACY_VALUE','');
#28=(GEOMETRIC_REPRESENTATION_CONTEXT(3)GLOBAL_UNCERTAINTY_ASSIGNED_CONTEXT((#23))GLOBAL_UNIT_ASSIGNED_CONTEXT((#14,#18,#22))REPRESENTATION_CONTEXT('None','None'));
#29=APPLICATION_CONTEXT('CONFIGURATION CONTROLLED 3D DESIGNS OF MECHANICAL PARTS AND ASSEMBLIES');
#30=APPLICATION_PROTOCOL_DEFINITION('INTERNATIONAL STANDARD','config_control_design',1995,#29);
#31=MECHANICAL_CONTEXT('3D Mechanical Parts',#29,'mechanical');
#32=PRODUCT('SV2000V','SV2000V',' ',(#31));
#33=PRODUCT_RELATED_PRODUCT_CATEGORY('detail',$,(#32));
#34=PRODUCT_CATEGORY('part',$);
#35=PRODUCT_CATEGORY_RELATIONSHIP('None','None',#34,#33);
#36=PERSON('1','Design','Joe',$,$,$);
#37=ORGANIZATION($,'None','None');
#38=PERSON_AND_ORGANIZATION(#36,#37);
#39=PERSON_AND_ORGANIZATION_ROLE('design_owner');
#40=CC_DESIGN_PERSON_AND_ORGANIZATION_ASSIGNMENT(#38,#39,(#32));
#41=PRODUCT_DEFINITION_FORMATION_WITH_SPECIFIED_SOURCE('None','None',#32,.NOT_KNOWN.);
#42=PERSON('2','Creator','Joe',$,$,$);
#43=ORGANIZATION($,'None','None');
#44=PERSON_AND_ORGANIZATION(#42,#43);
#45=PERSON_AND_ORGANIZATION_ROLE('creator');
#46=CC_DESIGN_PERSON_AND_ORGANIZATION_ASSIGNMENT(#44,#45,(#41));
#47=PERSON('3','Supplier','Joe',$,$,$);
#48=ORGANIZATION($,'None','None');
#49=PERSON_AND_ORGANIZATION(#47,#48);
#50=PERSON_AND_ORGANIZATION_ROLE('design_supplier');
#51=CC_DESIGN_PERSON_AND_ORGANIZATION_ASSIGNMENT(#49,#50,(#41));
#52=APPROVAL_STATUS('approved');
#53=APPROVAL(#52,'None');
#54=PERSON('4','Approver','Joe',$,$,$);
#55=ORGANIZATION($,'None','None');
#56=PERSON_AND_ORGANIZATION(#54,#55);
#57=APPROVAL_ROLE('approver');
#58=APPROVAL_PERSON_ORGANIZATION(#56,#53,#57);
#59=COORDINATED_UNIVERSAL_TIME_OFFSET(8,$,.BEHIND.);
#60=CALENDAR_DATE(1996,29,5);
#61=LOCAL_TIME(12,0,0.0,#59);
#62=DATE_AND_TIME(#60,#61);
#63=APPROVAL_DATE_TIME(#62,#53);
#64=CC_DESIGN_APPROVAL(#53,(#41));
#65=SECURITY_CLASSIFICATION_LEVEL('unclassified');
#66=SECURITY_CLASSIFICATION('security','None',#65);
#67=CC_DESIGN_SECURITY_CLASSIFICATION(#66,(#41));
#68=APPROVAL_STATUS('approved');
#69=APPROVAL(#68,'None');
#70=PERSON('5','Approver','Joe',$,$,$);
#71=ORGANIZATION($,'None','None');
#72=PERSON_AND_ORGANIZATION(#70,#71);
#73=APPROVAL_ROLE('approver');
#74=APPROVAL_PERSON_ORGANIZATION(#72,#69,#73);
#75=COORDINATED_UNIVERSAL_TIME_OFFSET(8,$,.BEHIND.);
#76=CALENDAR_DATE(1996,29,5);
#77=LOCAL_TIME(12,0,0.0,#75);
#78=DATE_AND_TIME(#76,#77);
#79=APPROVAL_DATE_TIME(#78,#69);
#80=CC_DESIGN_APPROVAL(#69,(#66));
#81=PERSON('6','Classifier','Joe',$,$,$);
#82=ORGANIZATION($,'None','None');
#83=PERSON_AND_ORGANIZATION(#81,#82);
#84=PERSON_AND_ORGANIZATION_ROLE('classification_officer');
#85=CC_DESIGN_PERSON_AND_ORGANIZATION_ASSIGNMENT(#83,#84,(#66));
#86=COORDINATED_UNIVERSAL_TIME_OFFSET(8,$,.BEHIND.);
#87=CALENDAR_DATE(1996,29,5);
#88=LOCAL_TIME(12,0,0.0,#86);
#89=DATE_AND_TIME(#87,#88);
#90=DATE_TIME_ROLE('classification_date');
#91=CC_DESIGN_DATE_AND_TIME_ASSIGNMENT(#89,#90,(#66));
#92=DESIGN_CONTEXT('Design Context',#29,'design');
#93=PRODUCT_DEFINITION('None','None',#41,#92);
#94=PERSON('7','Creator','Joe',$,$,$);
#95=ORGANIZATION($,'None','None');
#96=PERSON_AND_ORGANIZATION(#94,#95);
#97=PERSON_AND_ORGANIZATION_ROLE('creator');
#98=CC_DESIGN_PERSON_AND_ORGANIZATION_ASSIGNMENT(#96,#97,(#93));
#99=COORDINATED_UNIVERSAL_TIME_OFFSET(8,$,.BEHIND.);
#100=CALENDAR_DATE(1996,29,5);
#101=LOCAL_TIME(12,0,0.0,#99);
#102=DATE_AND_TIME(#100,#101);
#103=DATE_TIME_ROLE('creation_date');
#104=CC_DESIGN_DATE_AND_TIME_ASSIGNMENT(#102,#103,(#93));
#105=APPROVAL_STATUS('approved');
#106=APPROVAL(#105,'None');
#107=PERSON('8','Approver','Joe',$,$,$);
#108=ORGANIZATION($,'None','None');
#109=PERSON_AND_ORGANIZATION(#107,#108);
#110=APPROVAL_ROLE('approver');
#111=APPROVAL_PERSON_ORGANIZATION(#109,#106,#110);
#112=COORDINATED_UNIVERSAL_TIME_OFFSET(8,$,.BEHIND.);
#113=CALENDAR_DATE(1996,29,5);
#114=LOCAL_TIME(12,0,0.0,#112);
#115=DATE_AND_TIME(#113,#114);
#116=APPROVAL_DATE_TIME(#115,#106);
#117=CC_DESIGN_APPROVAL(#106,(#93));
#118=CARTESIAN_POINT('NONE',(0.0,0.0,0.0));
#119=DIRECTION('NONE',(0.0,0.0,1.0));
#120=DIRECTION('NONE',(1.0,0.0,0.0));
#121=AXIS2_PLACEMENT_3D('NONE',#118,#119,#120);
#122=SHAPE_REPRESENTATION('SR1',(#121),#28);
#123=PRODUCT_DEFINITION_SHAPE('PDS1','Test Part',#93);
#124=SHAPE_DEFINITION_REPRESENTATION(#123,#122);
#125=CARTESIAN_POINT('',(-20.0,20.0,-11.100000000000005));
#126=DIRECTION('',(0.0,-1.224647E-016,-1.0));
#127=DIRECTION('',(1.0,0.0,0.0));
#128=AXIS2_PLACEMENT_3D('',#125,#126,#127);
#129=CYLINDRICAL_SURFACE('',#128,2.500000000000000);
#130=CARTESIAN_POINT('',(-17.500000000000000,20.0,-1.100000000000005));
#131=VERTEX_POINT('',#130);
#132=CARTESIAN_POINT('',(-17.500000000000000,20.0,-11.429390523277458));
#133=VERTEX_POINT('',#132);
#134=CARTESIAN_POINT('',(-17.500000000000000,20.0,-1.100000000000005));
#135=DIRECTION('',(0.0,0.0,-1.0));
#136=VECTOR('',#135,10.329390523277453);
#137=LINE('',#134,#136);
#138=EDGE_CURVE('',#131,#133,#137,.T.);
#139=ORIENTED_EDGE('',*,*,#138,.F.);
#140=CARTESIAN_POINT('',(-22.500000000000000,20.0,-1.100000000000001));
#141=VERTEX_POINT('',#140);
#142=CARTESIAN_POINT('',(-20.0,20.0,-1.100000000000000));
#143=DIRECTION('',(0.0,0.0,-1.0));
#144=DIRECTION('',(1.0,0.0,0.0));
#145=AXIS2_PLACEMENT_3D('',#142,#143,#144);
#146=CIRCLE('',#145,2.500000000000000);
#147=EDGE_CURVE('',#141,#131,#146,.T.);
#148=ORIENTED_EDGE('',*,*,#147,.F.);
#149=CARTESIAN_POINT('',(-22.500000000000000,20.0,-11.429390523277457));
#150=VERTEX_POINT('',#149);
#151=CARTESIAN_POINT('',(-22.500000000000000,20.0,-1.100000000000001));
#152=DIRECTION('',(0.0,0.0,-1.0));
#153=VECTOR('',#152,10.329390523277455);
#154=LINE('',#151,#153);
#155=EDGE_CURVE('',#141,#150,#154,.T.);
#156=ORIENTED_EDGE('',*,*,#155,.T.);
#157=CARTESIAN_POINT('',(-17.500000000000000,20.0,-11.429390523277458));
#158=CARTESIAN_POINT('',(-17.500000000000000,20.157957666591720,-11.429390523277458));
#159=CARTESIAN_POINT('',(-17.515211540995480,20.320997175655336,-11.434053523949887));
#160=CARTESIAN_POINT('',(-17.578934113182974,20.644711443744871,-11.452974863698094));
#161=CARTESIAN_POINT('',(-17.627428037716538,20.805390580231375,-11.467215914418656));
#162=CARTESIAN_POINT('',(-17.755265584852463,21.113067607203604,-11.502763965297103));
#163=CARTESIAN_POINT('',(-17.834710694035405,21.260327927825834,-11.524062286008869));
#164=CARTESIAN_POINT('',(-18.017944125912468,21.532435570485177,-11.569490299251632));
#165=CARTESIAN_POINT('',(-18.121746965769177,21.657280871701914,-11.593573528331486));
#166=CARTESIAN_POINT('',(-18.342690510185619,21.878224416118357,-11.639882803059752));
#167=CARTESIAN_POINT('',(-18.467522370132585,21.982023919306521,-11.663761206830143));
#168=CARTESIAN_POINT('',(-18.739637965186670,22.165269970374549,-11.708447413534985));
#169=CARTESIAN_POINT('',(-18.886919674739794,22.244729740447077,-11.729213319573983));
#170=CARTESIAN_POINT('',(-19.194638973491202,22.372583632048105,-11.763680546176634));
#171=CARTESIAN_POINT('',(-19.355338341049436,22.421079301037249,-11.777381761662562));
#172=CARTESIAN_POINT('',(-19.679058517585787,22.484795806768332,-11.795547240223341));
#173=CARTESIAN_POINT('',(-19.842083247614084,22.500000000000000,-11.800000000000042));
#174=CARTESIAN_POINT('',(-20.157916752385916,22.500000000000000,-11.800000000000042));
#175=CARTESIAN_POINT('',(-20.320941482414213,22.484795806768332,-11.795547240223341));
#176=CARTESIAN_POINT('',(-20.644661658950564,22.421079301037249,-11.777381761662562));
#177=CARTESIAN_POINT('',(-20.805361026508798,22.372583632048105,-11.763680546176634));
#178=CARTESIAN_POINT('',(-21.113080325260206,22.244729740447077,-11.729213319573983));
#179=CARTESIAN_POINT('',(-21.260362034813330,22.165269970374549,-11.708447413534985));
#180=CARTESIAN_POINT('',(-21.532477629867415,21.982023919306521,-11.663761206830143));
#181=CARTESIAN_POINT('',(-21.657309489814381,21.878224416118357,-11.639882803059752));
#182=CARTESIAN_POINT('',(-21.878253034230823,21.657280871701914,-11.593573528331483));
#183=CARTESIAN_POINT('',(-21.982055874087536,21.532435570485177,-11.569490299251632));
#184=CARTESIAN_POINT('',(-22.165289305964599,21.260327927825834,-11.524062286008869));
#185=CARTESIAN_POINT('',(-22.244734415147537,21.113067607203604,-11.502763965297099));
#186=CARTESIAN_POINT('',(-22.372571962283462,20.805390580231375,-11.467215914418652));
#187=CARTESIAN_POINT('',(-22.421065886817026,20.644711443744871,-11.452974863698090));
#188=CARTESIAN_POINT('',(-22.484788459004520,20.320997175655336,-11.434053523949883));
#189=CARTESIAN_POINT('',(-22.500000000000000,20.157957666591720,-11.429390523277458));
#190=CARTESIAN_POINT('',(-22.500000000000000,20.0,-11.429390523277457));
#191=B_SPLINE_CURVE_WITH_KNOTS('',3,(#157,#158,#159,#160,#161,#162,#163,#164,#165,#166,#167,#168,#169,#170,#171,#172,#173,#174,#175,#176,#177,#178,#179,#180,#181,#182,#183,#184,#185,#186,#187,#188,#189,#190),.UNSPECIFIED.,.F.,.U.,(4,2,2,2,2,2,2,2,2,2,2,2,2,2,2,2,4),(0.0,0.473872999775160,0.947745999550320,1.421618999325480,1.895491999100640,2.369242256258390,2.842992513416141,3.316742770573891,3.790493027731641,4.264243284889391,4.737993542047141,5.211743799204891,5.685494056362641,6.159367056137802,6.633240055912961,7.107113055688121,7.580986055463281),.UNSPECIFIED.);
#192=EDGE_CURVE('',#133,#150,#191,.T.);
#193=ORIENTED_EDGE('',*,*,#192,.F.);
#194=EDGE_LOOP('',(#139,#148,#156,#193));
#195=FACE_OUTER_BOUND('',#194,.T.);
#196=ADVANCED_FACE('',(#195),#129,.F.);
#197=CARTESIAN_POINT('',(-20.0,20.0,-11.100000000000005));
#198=DIRECTION('',(0.0,-1.224647E-016,-1.0));
#199=DIRECTION('',(1.0,0.0,0.0));
#200=AXIS2_PLACEMENT_3D('',#197,#198,#199);
#201=CYLINDRICAL_SURFACE('',#200,2.500000000000000);
#202=ORIENTED_EDGE('',*,*,#138,.T.);
#203=CARTESIAN_POINT('',(-22.500000000000000,20.0,-11.429390523277457));
#204=CARTESIAN_POINT('',(-22.500000000000000,19.842042333408280,-11.429390523277455));
#205=CARTESIAN_POINT('',(-22.484788459004520,19.679002824344661,-11.434053523949880));
#206=CARTESIAN_POINT('',(-22.421065886817026,19.355288556255129,-11.452974863698083));
#207=CARTESIAN_POINT('',(-22.372571962283466,19.194609419768632,-11.467215914418643));
#208=CARTESIAN_POINT('',(-22.244734415147541,18.886932392796396,-11.502763965297085));
#209=CARTESIAN_POINT('',(-22.165289305964592,18.739672072174159,-11.524062286008855));
#210=CARTESIAN_POINT('',(-21.982055874087528,18.467564429514816,-11.569490299251614));
#211=CARTESIAN_POINT('',(-21.878253034230823,18.342719128298086,-11.593573528331465));
#212=CARTESIAN_POINT('',(-21.657309489814381,18.121775583881643,-11.639882803059731));
#213=CARTESIAN_POINT('',(-21.532477629867415,18.017976080693476,-11.663761206830124));
#214=CARTESIAN_POINT('',(-21.260362034813330,17.834730029625447,-11.708447413534964));
#215=CARTESIAN_POINT('',(-21.113080325260206,17.755270259552923,-11.729213319573958));
#216=CARTESIAN_POINT('',(-20.805361026508798,17.627416367951895,-11.763680546176609));
#217=CARTESIAN_POINT('',(-20.644661658950564,17.578920698962751,-11.777381761662532));
#218=CARTESIAN_POINT('',(-20.320941482414213,17.515204193231668,-11.795547240223311));
#219=CARTESIAN_POINT('',(-20.157916752385916,17.500000000000000,-11.800000000000013));
#220=CARTESIAN_POINT('',(-19.842083247614084,17.500000000000000,-11.800000000000013));
#221=CARTESIAN_POINT('',(-19.679058517585787,17.515204193231668,-11.795547240223311));
#222=CARTESIAN_POINT('',(-19.355338341049436,17.578920698962751,-11.777381761662532));
#223=CARTESIAN_POINT('',(-19.194638973491202,17.627416367951895,-11.763680546176609));
#224=CARTESIAN_POINT('',(-18.886919674739794,17.755270259552923,-11.729213319573958));
#225=CARTESIAN_POINT('',(-18.739637965186667,17.834730029625451,-11.708447413534964));
#226=CARTESIAN_POINT('',(-18.467522370132585,18.017976080693479,-11.663761206830124));
#227=CARTESIAN_POINT('',(-18.342690510185619,18.121775583881643,-11.639882803059731));
#228=CARTESIAN_POINT('',(-18.121746965769177,18.342719128298086,-11.593573528331468));
#229=CARTESIAN_POINT('',(-18.017944125912464,18.467564429514827,-11.569490299251616));
#230=CARTESIAN_POINT('',(-17.834710694035401,18.739672072174177,-11.524062286008856));
#231=CARTESIAN_POINT('',(-17.755265584852459,18.886932392796396,-11.502763965297090));
#232=CARTESIAN_POINT('',(-17.627428037716534,19.194609419768632,-11.467215914418647));
#233=CARTESIAN_POINT('',(-17.578934113182974,19.355288556255136,-11.452974863698081));
#234=CARTESIAN_POINT('',(-17.515211540995480,19.679002824344668,-11.434053523949881));
#235=CARTESIAN_POINT('',(-17.500000000000000,19.842042333408280,-11.429390523277458));
#236=CARTESIAN_POINT('',(-17.500000000000000,20.0,-11.429390523277458));
#237=B_SPLINE_CURVE_WITH_KNOTS('',3,(#203,#204,#205,#206,#207,#208,#209,#210,#211,#212,#213,#214,#215,#216,#217,#218,#219,#220,#221,#222,#223,#224,#225,#226,#227,#228,#229,#230,#231,#232,#233,#234,#235,#236),.UNSPECIFIED.,.F.,.U.,(4,2,2,2,2,2,2,2,2,2,2,2,2,2,2,2,4),(7.580986055463281,8.054859055238442,8.528732055013601,9.002605054788759,9.476478054563920,9.950228311721670,10.423978568879420,10.897728826037170,11.371479083194920,11.845229340352670,12.318979597510420,12.792729854668170,13.266480111825921,13.740353111601081,14.214226111376242,14.688099111151402,15.161972110926561),.UNSPECIFIED.);
#238=EDGE_CURVE('',#150,#133,#237,.T.);
#239=ORIENTED_EDGE('',*,*,#238,.F.);
#240=ORIENTED_EDGE('',*,*,#155,.F.);
#241=CARTESIAN_POINT('',(-20.0,20.0,-1.100000000000000));
#242=DIRECTION('',(0.0,0.0,-1.0));
#243=DIRECTION('',(1.0,0.0,0.0));
#244=AXIS2_PLACEMENT_3D('',#241,#242,#243);
#245=CIRCLE('',#244,2.500000000000000);
#246=EDGE_CURVE('',#131,#141,#245,.T.);
#247=ORIENTED_EDGE('',*,*,#246,.F.);
#248=EDGE_LOOP('',(#202,#239,#240,#247));
#249=FACE_OUTER_BOUND('',#248,.T.);
#250=ADVANCED_FACE('',(#249),#201,.F.);
#251=CARTESIAN_POINT('',(-24.0,33.0,-1.100000000000002));
#252=DIRECTION('',(0.0,0.0,1.0));
#253=DIRECTION('',(1.0,0.0,0.0));
#254=AXIS2_PLACEMENT_3D('',#251,#252,#253);
#255=PLANE('',#254);
#256=CARTESIAN_POINT('',(-24.0,12.999999999999545,-1.099999999999775));
#257=VERTEX_POINT('',#256);
#258=CARTESIAN_POINT('',(-16.0,12.999999999999545,-1.099999999999775));
#259=VERTEX_POINT('',#258);
#260=CARTESIAN_POINT('',(-24.0,12.999999999999545,-1.099999999999775));
#261=DIRECTION('',(1.0,0.0,0.0));
#262=VECTOR('',#261,8.0);
#263=LINE('',#260,#262);
#264=EDGE_CURVE('',#257,#259,#263,.T.);
#265=ORIENTED_EDGE('',*,*,#264,.T.);
#266=CARTESIAN_POINT('',(-16.0,33.0,-1.100000000000002));
#267=VERTEX_POINT('',#266);
#268=CARTESIAN_POINT('',(-16.0,33.0,-1.100000000000002));
#269=DIRECTION('',(0.0,-1.0,0.0));
#270=VECTOR('',#269,20.000000000000455);
#271=LINE('',#268,#270);
#272=EDGE_CURVE('',#267,#259,#271,.T.);
#273=ORIENTED_EDGE('',*,*,#272,.F.);
#274=CARTESIAN_POINT('',(-24.0,33.0,-1.100000000000002));
#275=VERTEX_POINT('',#274);
#276=CARTESIAN_POINT('',(-16.0,33.0,-1.100000000000002));
#277=DIRECTION('',(-1.0,0.0,0.0));
#278=VECTOR('',#277,8.0);
#279=LINE('',#276,#278);
#280=EDGE_CURVE('',#267,#275,#279,.T.);
#281=ORIENTED_EDGE('',*,*,#280,.T.);
#282=CARTESIAN_POINT('',(-24.0,33.0,-1.100000000000002));
#283=DIRECTION('',(0.0,-1.0,0.0));
#284=VECTOR('',#283,20.000000000000455);
#285=LINE('',#282,#284);
#286=EDGE_CURVE('',#275,#257,#285,.T.);
#287=ORIENTED_EDGE('',*,*,#286,.T.);
#288=EDGE_LOOP('',(#265,#273,#281,#287));
#289=FACE_OUTER_BOUND('',#288,.T.);
#290=ORIENTED_EDGE('',*,*,#246,.T.);
#291=ORIENTED_EDGE('',*,*,#147,.T.);
#292=EDGE_LOOP('',(#290,#291));
#293=FACE_BOUND('',#292,.T.);
#294=ADVANCED_FACE('',(#289,#293),#255,.T.);
#295=CARTESIAN_POINT('',(-16.0,33.0,-1.100000000000002));
#296=DIRECTION('',(1.0,0.0,0.0));
#297=DIRECTION('',(0.0,0.0,-1.0));
#298=AXIS2_PLACEMENT_3D('',#295,#296,#297);
#299=PLANE('',#298);
#300=CARTESIAN_POINT('',(-16.0,12.999999999999545,-4.599999999999548));
#301=VERTEX_POINT('',#300);
#302=CARTESIAN_POINT('',(-16.0,12.999999999999545,-1.099999999999775));
#303=DIRECTION('',(0.0,0.0,-1.0));
#304=VECTOR('',#303,3.499999999999773);
#305=LINE('',#302,#304);
#306=EDGE_CURVE('',#259,#301,#305,.T.);
#307=ORIENTED_EDGE('',*,*,#306,.T.);
#308=CARTESIAN_POINT('',(-16.0,33.0,-4.599999999999775));
#309=VERTEX_POINT('',#308);
#310=CARTESIAN_POINT('',(-16.0,33.0,-4.599999999999775));
#311=DIRECTION('',(0.0,-1.0,0.0));
#312=VECTOR('',#311,20.000000000000455);
#313=LINE('',#310,#312);
#314=EDGE_CURVE('',#309,#301,#313,.T.);
#315=ORIENTED_EDGE('',*,*,#314,.F.);
#316=CARTESIAN_POINT('',(-16.0,33.0,-4.599999999999775));
#317=DIRECTION('',(0.0,0.0,1.0));
#318=VECTOR('',#317,3.499999999999773);
#319=LINE('',#316,#318);
#320=EDGE_CURVE('',#309,#267,#319,.T.);
#321=ORIENTED_EDGE('',*,*,#320,.T.);
#322=ORIENTED_EDGE('',*,*,#272,.T.);
#323=EDGE_LOOP('',(#307,#315,#321,#322));
#324=FACE_OUTER_BOUND('',#323,.T.);
#325=ADVANCED_FACE('',(#324),#299,.T.);
#326=CARTESIAN_POINT('',(-16.0,33.0,-4.599999999999775));
#327=DIRECTION('',(0.0,0.0,1.0));
#328=DIRECTION('',(1.0,0.0,0.0));
#329=AXIS2_PLACEMENT_3D('',#326,#327,#328);
#330=PLANE('',#329);
#331=CARTESIAN_POINT('',(-11.500000000000000,12.999999999999545,-4.599999999999548));
#332=VERTEX_POINT('',#331);
#333=CARTESIAN_POINT('',(-16.0,12.999999999999545,-4.599999999999548));
#334=DIRECTION('',(1.0,0.0,0.0));
#335=VECTOR('',#334,4.500000000000000);
#336=LINE('',#333,#335);
#337=EDGE_CURVE('',#301,#332,#336,.T.);
#338=ORIENTED_EDGE('',*,*,#337,.T.);
#339=CARTESIAN_POINT('',(-11.500000000000000,33.0,-4.599999999999775));
#340=VERTEX_POINT('',#339);
#341=CARTESIAN_POINT('',(-11.500000000000000,33.0,-4.599999999999775));
#342=DIRECTION('',(0.0,-1.0,0.0));
#343=VECTOR('',#342,20.000000000000455);
#344=LINE('',#341,#343);
#345=EDGE_CURVE('',#340,#332,#344,.T.);
#346=ORIENTED_EDGE('',*,*,#345,.F.);
#347=CARTESIAN_POINT('',(-11.500000000000000,33.0,-4.599999999999775));
#348=DIRECTION('',(-1.0,0.0,0.0));
#349=VECTOR('',#348,4.500000000000000);
#350=LINE('',#347,#349);
#351=EDGE_CURVE('',#340,#309,#350,.T.);
#352=ORIENTED_EDGE('',*,*,#351,.T.);
#353=ORIENTED_EDGE('',*,*,#314,.T.);
#354=EDGE_LOOP('',(#338,#346,#352,#353));
#355=FACE_OUTER_BOUND('',#354,.T.);
#356=ADVANCED_FACE('',(#355),#330,.T.);
#357=CARTESIAN_POINT('',(-20.0,33.0,-3.182638888889053));
#358=DIRECTION('',(2.901655E-016,-1.0,5.684342E-015));
#359=DIRECTION('',(0.0,0.0,-1.0));
#360=AXIS2_PLACEMENT_3D('',#357,#358,#359);
#361=CYLINDRICAL_SURFACE('',#360,8.617361111111048);
#362=CARTESIAN_POINT('',(-28.500000000000000,12.999999999999545,-4.599999999999548));
#363=VERTEX_POINT('',#362);
#364=CARTESIAN_POINT('',(-20.0,13.0,-3.182638888888826));
#365=DIRECTION('',(0.0,1.0,0.0));
#366=DIRECTION('',(0.0,0.0,-1.0));
#367=AXIS2_PLACEMENT_3D('',#364,#365,#366);
#368=CIRCLE('',#367,8.617361111111048);
#369=EDGE_CURVE('',#332,#363,#368,.T.);
#370=ORIENTED_EDGE('',*,*,#369,.T.);
#371=CARTESIAN_POINT('',(-28.500000000000000,33.0,-4.599999999999775));
#372=VERTEX_POINT('',#371);
#373=CARTESIAN_POINT('',(-28.500000000000000,33.0,-4.599999999999775));
#374=DIRECTION('',(0.0,-1.0,0.0));
#375=VECTOR('',#374,20.000000000000455);
#376=LINE('',#373,#375);
#377=EDGE_CURVE('',#372,#363,#376,.T.);
#378=ORIENTED_EDGE('',*,*,#377,.F.);
#379=CARTESIAN_POINT('',(-20.0,33.0,-3.182638888889053));
#380=DIRECTION('',(0.0,-1.0,0.0));
#381=DIRECTION('',(0.0,0.0,-1.0));
#382=AXIS2_PLACEMENT_3D('',#379,#380,#381);
#383=CIRCLE('',#382,8.617361111111048);
#384=EDGE_CURVE('',#372,#340,#383,.T.);
#385=ORIENTED_EDGE('',*,*,#384,.T.);
#386=ORIENTED_EDGE('',*,*,#345,.T.);
#387=EDGE_LOOP('',(#370,#378,#385,#386));
#388=FACE_OUTER_BOUND('',#387,.T.);
#389=ORIENTED_EDGE('',*,*,#192,.T.);
#390=ORIENTED_EDGE('',*,*,#238,.T.);
#391=EDGE_LOOP('',(#389,#390));
#392=FACE_BOUND('',#391,.T.);
#393=ADVANCED_FACE('',(#388,#392),#361,.T.);
#394=CARTESIAN_POINT('',(-28.500000000000000,33.0,-4.599999999999775));
#395=DIRECTION('',(0.0,0.0,1.0));
#396=DIRECTION('',(1.0,0.0,0.0));
#397=AXIS2_PLACEMENT_3D('',#394,#395,#396);
#398=PLANE('',#397);
#399=CARTESIAN_POINT('',(-24.0,12.999999999999545,-4.599999999999548));
#400=VERTEX_POINT('',#399);
#401=CARTESIAN_POINT('',(-28.500000000000000,12.999999999999545,-4.599999999999548));
#402=DIRECTION('',(1.0,0.0,0.0));
#403=VECTOR('',#402,4.500000000000000);
#404=LINE('',#401,#403);
#405=EDGE_CURVE('',#363,#400,#404,.T.);
#406=ORIENTED_EDGE('',*,*,#405,.T.);
#407=CARTESIAN_POINT('',(-24.0,33.0,-4.599999999999775));
#408=VERTEX_POINT('',#407);
#409=CARTESIAN_POINT('',(-24.0,33.0,-4.599999999999775));
#410=DIRECTION('',(0.0,-1.0,0.0));
#411=VECTOR('',#410,20.000000000000455);
#412=LINE('',#409,#411);
#413=EDGE_CURVE('',#408,#400,#412,.T.);
#414=ORIENTED_EDGE('',*,*,#413,.F.);
#415=CARTESIAN_POINT('',(-24.0,33.0,-4.599999999999775));
#416=DIRECTION('',(-1.0,0.0,0.0));
#417=VECTOR('',#416,4.500000000000000);
#418=LINE('',#415,#417);
#419=EDGE_CURVE('',#408,#372,#418,.T.);
#420=ORIENTED_EDGE('',*,*,#419,.T.);
#421=ORIENTED_EDGE('',*,*,#377,.T.);
#422=EDGE_LOOP('',(#406,#414,#420,#421));
#423=FACE_OUTER_BOUND('',#422,.T.);
#424=ADVANCED_FACE('',(#423),#398,.T.);
#425=CARTESIAN_POINT('',(-24.0,33.0,-4.599999999999775));
#426=DIRECTION('',(-1.0,0.0,0.0));
#427=DIRECTION('',(0.0,0.0,1.0));
#428=AXIS2_PLACEMENT_3D('',#425,#426,#427);
#429=PLANE('',#428);
#430=CARTESIAN_POINT('',(-24.0,12.999999999999545,-4.599999999999548));
#431=DIRECTION('',(0.0,0.0,1.0));
#432=VECTOR('',#431,3.499999999999773);
#433=LINE('',#430,#432);
#434=EDGE_CURVE('',#400,#257,#433,.T.);
#435=ORIENTED_EDGE('',*,*,#434,.T.);
#436=ORIENTED_EDGE('',*,*,#286,.F.);
#437=CARTESIAN_POINT('',(-24.0,33.0,-1.100000000000002));
#438=DIRECTION('',(0.0,0.0,-1.0));
#439=VECTOR('',#438,3.499999999999773);
#440=LINE('',#437,#439);
#441=EDGE_CURVE('',#275,#408,#440,.T.);
#442=ORIENTED_EDGE('',*,*,#441,.T.);
#443=ORIENTED_EDGE('',*,*,#413,.T.);
#444=EDGE_LOOP('',(#435,#436,#442,#443));
#445=FACE_OUTER_BOUND('',#444,.T.);
#446=ADVANCED_FACE('',(#445),#429,.T.);
#447=CARTESIAN_POINT('',(-20.0,12.999999999999545,-5.861506198701684));
#448=DIRECTION('',(0.0,1.0,0.0));
#449=DIRECTION('',(0.0,0.0,1.0));
#450=AXIS2_PLACEMENT_3D('',#447,#448,#449);
#451=PLANE('',#450);
#452=ORIENTED_EDGE('',*,*,#264,.F.);
#453=ORIENTED_EDGE('',*,*,#434,.F.);
#454=ORIENTED_EDGE('',*,*,#405,.F.);
#455=ORIENTED_EDGE('',*,*,#369,.F.);
#456=ORIENTED_EDGE('',*,*,#337,.F.);
#457=ORIENTED_EDGE('',*,*,#306,.F.);
#458=EDGE_LOOP('',(#452,#453,#454,#455,#456,#457));
#459=FACE_OUTER_BOUND('',#458,.T.);
#460=ADVANCED_FACE('',(#459),#451,.F.);
#461=CARTESIAN_POINT('',(-20.0,32.999999999999545,-5.861506198701911));
#462=DIRECTION('',(0.0,1.0,0.0));
#463=DIRECTION('',(0.0,0.0,1.0));
#464=AXIS2_PLACEMENT_3D('',#461,#462,#463);
#465=PLANE('',#464);
#466=ORIENTED_EDGE('',*,*,#441,.F.);
#467=ORIENTED_EDGE('',*,*,#280,.F.);
#468=ORIENTED_EDGE('',*,*,#320,.F.);
#469=ORIENTED_EDGE('',*,*,#351,.F.);
#470=ORIENTED_EDGE('',*,*,#384,.F.);
#471=ORIENTED_EDGE('',*,*,#419,.F.);
#472=EDGE_LOOP('',(#466,#467,#468,#469,#470,#471));
#473=FACE_OUTER_BOUND('',#472,.T.);
#474=ADVANCED_FACE('',(#473),#465,.T.);
#475=CLOSED_SHELL('',(#196,#250,#294,#325,#356,#393,#424,#446,#460,#474));
#476=MANIFOLD_SOLID_BREP('B8B',#475);
#477=ADVANCED_BREP_SHAPE_REPRESENTATION('ABSR1',(#476),#28);
#478=SHAPE_REPRESENTATION_RELATIONSHIP('SRRPL1',' ',#477,#122);
ENDSEC;
END-ISO-10303-21;
