ISO-10303-21;
HEADER;
/* Generated by software containing ST-Developer
 * from STEP Tools, Inc. (www.steptools.com) 
 */

FILE_DESCRIPTION(
/* description */ (''),
/* implementation_level */ '2;1');

FILE_NAME(
/* name */ 
'X:\\VIRI ZA WEB\\CAD DATOTEKE\\ELEKTRI\X2\010C\X0\NI CILINDRI PNCE\\D
ODATNA OPREMA ELEKTRI\X2\010C\X0\NI CILINDRI\\PRITRDILA\\SGS\\izvoz\\C
AD_69551.stp',
/* time_stamp */ '2016-06-01T14:18:27+02:00',
/* author */ ('Hypex'),
/* organization */ ('Hypex'),
/* preprocessor_version */ 'ST-DEVELOPER v16.1',
/* originating_system */ 'Autodesk Inventor 2016',
/* authorisation */ '');

FILE_SCHEMA (('AUTOMOTIVE_DESIGN { 1 0 10303 214 3 1 1 }'));
ENDSEC;

DATA;
#10=MECHANICAL_DESIGN_GEOMETRIC_PRESENTATION_REPRESENTATION('',(#275,#274,
#279,#277,#272,#273,#280,#285,#281,#282,#283,#284,#290,#291,#292,#293,#286,
#287,#288,#289,#276,#278),#550);
#11=SHAPE_REPRESENTATION_RELATIONSHIP('SRR','None',#559,#12);
#12=ADVANCED_BREP_SHAPE_REPRESENTATION('',(#13),#549);
#13=MANIFOLD_SOLID_BREP('Solid1',#315);
#14=SPHERICAL_SURFACE('',#353,16.);
#15=CONICAL_SURFACE('',#344,11.3328817746655,29.5721148624439);
#16=CONICAL_SURFACE('',#350,2.66175,59.);
#17=CONICAL_SURFACE('',#355,11.3328817746655,29.5721148624439);
#18=CONICAL_SURFACE('',#356,9.875,50.5600129789621);
#19=(
BOUNDED_CURVE()
B_SPLINE_CURVE(2,(#478,#479,#480),.UNSPECIFIED.,.F.,.F.)
B_SPLINE_CURVE_WITH_KNOTS((3,3),(0.,1.10101728714937),.UNSPECIFIED.)
CURVE()
GEOMETRIC_REPRESENTATION_ITEM()
RATIONAL_B_SPLINE_CURVE((1.,1.03947493706907,1.))
REPRESENTATION_ITEM('')
);
#20=(
BOUNDED_CURVE()
B_SPLINE_CURVE(2,(#483,#484,#485),.UNSPECIFIED.,.F.,.F.)
B_SPLINE_CURVE_WITH_KNOTS((3,3),(0.,1.10101728714938),.UNSPECIFIED.)
CURVE()
GEOMETRIC_REPRESENTATION_ITEM()
RATIONAL_B_SPLINE_CURVE((1.,1.03947493706897,1.))
REPRESENTATION_ITEM('')
);
#21=(
BOUNDED_CURVE()
B_SPLINE_CURVE(2,(#489,#490,#491),.UNSPECIFIED.,.F.,.F.)
B_SPLINE_CURVE_WITH_KNOTS((3,3),(0.,1.13617657864865),.UNSPECIFIED.)
CURVE()
GEOMETRIC_REPRESENTATION_ITEM()
RATIONAL_B_SPLINE_CURVE((1.,1.15789473684211,1.))
REPRESENTATION_ITEM('')
);
#22=(
BOUNDED_CURVE()
B_SPLINE_CURVE(2,(#500,#501,#502),.UNSPECIFIED.,.F.,.F.)
B_SPLINE_CURVE_WITH_KNOTS((3,3),(0.,1.13617657864865),.UNSPECIFIED.)
CURVE()
GEOMETRIC_REPRESENTATION_ITEM()
RATIONAL_B_SPLINE_CURVE((1.,1.15789473684211,1.))
REPRESENTATION_ITEM('')
);
#23=(
BOUNDED_CURVE()
B_SPLINE_CURVE(2,(#515,#516,#517),.UNSPECIFIED.,.F.,.F.)
B_SPLINE_CURVE_WITH_KNOTS((3,3),(0.,1.10101728714938),.UNSPECIFIED.)
CURVE()
GEOMETRIC_REPRESENTATION_ITEM()
RATIONAL_B_SPLINE_CURVE((1.,1.03947493706901,1.))
REPRESENTATION_ITEM('')
);
#24=(
BOUNDED_CURVE()
B_SPLINE_CURVE(2,(#520,#521,#522),.UNSPECIFIED.,.F.,.F.)
B_SPLINE_CURVE_WITH_KNOTS((3,3),(0.,1.10101728714938),.UNSPECIFIED.)
CURVE()
GEOMETRIC_REPRESENTATION_ITEM()
RATIONAL_B_SPLINE_CURVE((1.,1.03947493706907,1.))
REPRESENTATION_ITEM('')
);
#25=LINE('',#475,#33);
#26=LINE('',#493,#34);
#27=LINE('',#495,#35);
#28=LINE('',#496,#36);
#29=LINE('',#504,#37);
#30=LINE('',#506,#38);
#31=LINE('',#507,#39);
#32=LINE('',#512,#40);
#33=VECTOR('',#387,12.737739202857);
#34=VECTOR('',#394,6.5);
#35=VECTOR('',#395,11.0905365064094);
#36=VECTOR('',#396,6.5);
#37=VECTOR('',#399,6.5);
#38=VECTOR('',#400,11.0905365064094);
#39=VECTOR('',#401,6.5);
#40=VECTOR('',#406,12.737739202857);
#41=ELLIPSE('',#329,13.7736785536845,8.74999999999999);
#42=ELLIPSE('',#335,13.7736785536845,8.75);
#43=CYLINDRICAL_SURFACE('',#322,6.);
#44=CYLINDRICAL_SURFACE('',#342,11.);
#45=CYLINDRICAL_SURFACE('',#347,8.75);
#46=CYLINDRICAL_SURFACE('',#352,5.3235);
#47=CYLINDRICAL_SURFACE('',#358,11.);
#48=TOROIDAL_SURFACE('',#320,6.1013721351933,3.60698720541825);
#49=TOROIDAL_SURFACE('',#326,6.1013721351933,3.60698720541825);
#50=FACE_BOUND('',#83,.T.);
#51=FACE_BOUND('',#85,.T.);
#52=FACE_BOUND('',#87,.T.);
#53=FACE_BOUND('',#89,.T.);
#54=FACE_BOUND('',#91,.T.);
#55=FACE_BOUND('',#94,.T.);
#56=FACE_BOUND('',#99,.T.);
#57=FACE_BOUND('',#101,.T.);
#58=FACE_BOUND('',#105,.T.);
#59=FACE_BOUND('',#108,.T.);
#60=FACE_BOUND('',#112,.T.);
#61=FACE_OUTER_BOUND('',#82,.T.);
#62=FACE_OUTER_BOUND('',#84,.T.);
#63=FACE_OUTER_BOUND('',#86,.T.);
#64=FACE_OUTER_BOUND('',#88,.T.);
#65=FACE_OUTER_BOUND('',#90,.T.);
#66=FACE_OUTER_BOUND('',#92,.T.);
#67=FACE_OUTER_BOUND('',#93,.T.);
#68=FACE_OUTER_BOUND('',#95,.T.);
#69=FACE_OUTER_BOUND('',#96,.T.);
#70=FACE_OUTER_BOUND('',#97,.T.);
#71=FACE_OUTER_BOUND('',#98,.T.);
#72=FACE_OUTER_BOUND('',#100,.T.);
#73=FACE_OUTER_BOUND('',#102,.T.);
#74=FACE_OUTER_BOUND('',#103,.T.);
#75=FACE_OUTER_BOUND('',#104,.T.);
#76=FACE_OUTER_BOUND('',#106,.T.);
#77=FACE_OUTER_BOUND('',#107,.T.);
#78=FACE_OUTER_BOUND('',#109,.T.);
#79=FACE_OUTER_BOUND('',#110,.T.);
#80=FACE_OUTER_BOUND('',#111,.T.);
#81=FACE_OUTER_BOUND('',#113,.T.);
#82=EDGE_LOOP('',(#193));
#83=EDGE_LOOP('',(#194));
#84=EDGE_LOOP('',(#195));
#85=EDGE_LOOP('',(#196));
#86=EDGE_LOOP('',(#197));
#87=EDGE_LOOP('',(#198));
#88=EDGE_LOOP('',(#199));
#89=EDGE_LOOP('',(#200));
#90=EDGE_LOOP('',(#201));
#91=EDGE_LOOP('',(#202));
#92=EDGE_LOOP('',(#203,#204));
#93=EDGE_LOOP('',(#205,#206,#207,#208));
#94=EDGE_LOOP('',(#209));
#95=EDGE_LOOP('',(#210,#211,#212,#213));
#96=EDGE_LOOP('',(#214,#215,#216,#217));
#97=EDGE_LOOP('',(#218,#219));
#98=EDGE_LOOP('',(#220,#221,#222,#223));
#99=EDGE_LOOP('',(#224));
#100=EDGE_LOOP('',(#225,#226,#227,#228));
#101=EDGE_LOOP('',(#229));
#102=EDGE_LOOP('',(#230,#231,#232,#233));
#103=EDGE_LOOP('',(#234,#235,#236,#237));
#104=EDGE_LOOP('',(#238,#239,#240,#241));
#105=EDGE_LOOP('',(#242));
#106=EDGE_LOOP('',(#243));
#107=EDGE_LOOP('',(#244));
#108=EDGE_LOOP('',(#245));
#109=EDGE_LOOP('',(#246,#247,#248,#249));
#110=EDGE_LOOP('',(#250,#251,#252,#253));
#111=EDGE_LOOP('',(#254,#255,#256,#257));
#112=EDGE_LOOP('',(#258));
#113=EDGE_LOOP('',(#259,#260,#261,#262));
#114=CIRCLE('',#318,7.75000000000001);
#115=CIRCLE('',#319,6.);
#116=CIRCLE('',#321,9.50000000000001);
#117=CIRCLE('',#323,6.);
#118=CIRCLE('',#325,7.75000000000001);
#119=CIRCLE('',#327,9.50000000000001);
#120=CIRCLE('',#331,14.8323969741914);
#121=CIRCLE('',#337,14.8323969741914);
#122=CIRCLE('',#339,11.);
#123=CIRCLE('',#340,11.);
#124=CIRCLE('',#341,5.3235);
#125=CIRCLE('',#343,11.);
#126=CIRCLE('',#345,13.915763549331);
#127=CIRCLE('',#346,8.74999999999999);
#128=CIRCLE('',#348,8.74999999999999);
#129=CIRCLE('',#349,8.75);
#130=CIRCLE('',#351,5.3235);
#131=CIRCLE('',#354,13.915763549331);
#132=CIRCLE('',#357,11.);
#133=VERTEX_POINT('',#455);
#134=VERTEX_POINT('',#457);
#135=VERTEX_POINT('',#460);
#136=VERTEX_POINT('',#463);
#137=VERTEX_POINT('',#466);
#138=VERTEX_POINT('',#469);
#139=VERTEX_POINT('',#472);
#140=VERTEX_POINT('',#473);
#141=VERTEX_POINT('',#477);
#142=VERTEX_POINT('',#481);
#143=VERTEX_POINT('',#487);
#144=VERTEX_POINT('',#488);
#145=VERTEX_POINT('',#492);
#146=VERTEX_POINT('',#494);
#147=VERTEX_POINT('',#498);
#148=VERTEX_POINT('',#499);
#149=VERTEX_POINT('',#503);
#150=VERTEX_POINT('',#505);
#151=VERTEX_POINT('',#509);
#152=VERTEX_POINT('',#510);
#153=VERTEX_POINT('',#514);
#154=VERTEX_POINT('',#518);
#155=VERTEX_POINT('',#526);
#156=VERTEX_POINT('',#535);
#157=VERTEX_POINT('',#538);
#158=EDGE_CURVE('',#133,#133,#114,.T.);
#159=EDGE_CURVE('',#134,#134,#115,.T.);
#160=EDGE_CURVE('',#135,#135,#116,.T.);
#161=EDGE_CURVE('',#136,#136,#117,.T.);
#162=EDGE_CURVE('',#137,#137,#118,.T.);
#163=EDGE_CURVE('',#138,#138,#119,.T.);
#164=EDGE_CURVE('',#139,#140,#41,.T.);
#165=EDGE_CURVE('',#140,#139,#25,.T.);
#166=EDGE_CURVE('',#141,#139,#19,.T.);
#167=EDGE_CURVE('',#142,#141,#120,.T.);
#168=EDGE_CURVE('',#140,#142,#20,.T.);
#169=EDGE_CURVE('',#143,#144,#21,.T.);
#170=EDGE_CURVE('',#145,#143,#26,.T.);
#171=EDGE_CURVE('',#146,#145,#27,.T.);
#172=EDGE_CURVE('',#144,#146,#28,.T.);
#173=EDGE_CURVE('',#147,#148,#22,.T.);
#174=EDGE_CURVE('',#149,#147,#29,.T.);
#175=EDGE_CURVE('',#150,#149,#30,.T.);
#176=EDGE_CURVE('',#148,#150,#31,.T.);
#177=EDGE_CURVE('',#151,#152,#42,.T.);
#178=EDGE_CURVE('',#151,#152,#32,.T.);
#179=EDGE_CURVE('',#153,#151,#23,.T.);
#180=EDGE_CURVE('',#154,#153,#121,.T.);
#181=EDGE_CURVE('',#152,#154,#24,.T.);
#182=EDGE_CURVE('',#145,#150,#122,.T.);
#183=EDGE_CURVE('',#149,#146,#123,.T.);
#184=EDGE_CURVE('',#155,#155,#124,.T.);
#185=EDGE_CURVE('',#143,#148,#125,.T.);
#186=EDGE_CURVE('',#142,#153,#126,.T.);
#187=EDGE_CURVE('',#140,#151,#127,.T.);
#188=EDGE_CURVE('',#152,#139,#128,.T.);
#189=EDGE_CURVE('',#156,#156,#129,.T.);
#190=EDGE_CURVE('',#157,#157,#130,.T.);
#191=EDGE_CURVE('',#154,#141,#131,.T.);
#192=EDGE_CURVE('',#147,#144,#132,.T.);
#193=ORIENTED_EDGE('',*,*,#158,.T.);
#194=ORIENTED_EDGE('',*,*,#159,.F.);
#195=ORIENTED_EDGE('',*,*,#160,.F.);
#196=ORIENTED_EDGE('',*,*,#158,.F.);
#197=ORIENTED_EDGE('',*,*,#161,.F.);
#198=ORIENTED_EDGE('',*,*,#159,.T.);
#199=ORIENTED_EDGE('',*,*,#162,.F.);
#200=ORIENTED_EDGE('',*,*,#161,.T.);
#201=ORIENTED_EDGE('',*,*,#163,.F.);
#202=ORIENTED_EDGE('',*,*,#162,.T.);
#203=ORIENTED_EDGE('',*,*,#164,.F.);
#204=ORIENTED_EDGE('',*,*,#165,.F.);
#205=ORIENTED_EDGE('',*,*,#166,.F.);
#206=ORIENTED_EDGE('',*,*,#167,.F.);
#207=ORIENTED_EDGE('',*,*,#168,.F.);
#208=ORIENTED_EDGE('',*,*,#165,.T.);
#209=ORIENTED_EDGE('',*,*,#163,.T.);
#210=ORIENTED_EDGE('',*,*,#169,.F.);
#211=ORIENTED_EDGE('',*,*,#170,.F.);
#212=ORIENTED_EDGE('',*,*,#171,.F.);
#213=ORIENTED_EDGE('',*,*,#172,.F.);
#214=ORIENTED_EDGE('',*,*,#173,.F.);
#215=ORIENTED_EDGE('',*,*,#174,.F.);
#216=ORIENTED_EDGE('',*,*,#175,.F.);
#217=ORIENTED_EDGE('',*,*,#176,.F.);
#218=ORIENTED_EDGE('',*,*,#177,.F.);
#219=ORIENTED_EDGE('',*,*,#178,.T.);
#220=ORIENTED_EDGE('',*,*,#179,.F.);
#221=ORIENTED_EDGE('',*,*,#180,.F.);
#222=ORIENTED_EDGE('',*,*,#181,.F.);
#223=ORIENTED_EDGE('',*,*,#178,.F.);
#224=ORIENTED_EDGE('',*,*,#160,.T.);
#225=ORIENTED_EDGE('',*,*,#171,.T.);
#226=ORIENTED_EDGE('',*,*,#182,.T.);
#227=ORIENTED_EDGE('',*,*,#175,.T.);
#228=ORIENTED_EDGE('',*,*,#183,.T.);
#229=ORIENTED_EDGE('',*,*,#184,.T.);
#230=ORIENTED_EDGE('',*,*,#170,.T.);
#231=ORIENTED_EDGE('',*,*,#185,.T.);
#232=ORIENTED_EDGE('',*,*,#176,.T.);
#233=ORIENTED_EDGE('',*,*,#182,.F.);
#234=ORIENTED_EDGE('',*,*,#168,.T.);
#235=ORIENTED_EDGE('',*,*,#186,.T.);
#236=ORIENTED_EDGE('',*,*,#179,.T.);
#237=ORIENTED_EDGE('',*,*,#187,.F.);
#238=ORIENTED_EDGE('',*,*,#164,.T.);
#239=ORIENTED_EDGE('',*,*,#187,.T.);
#240=ORIENTED_EDGE('',*,*,#177,.T.);
#241=ORIENTED_EDGE('',*,*,#188,.T.);
#242=ORIENTED_EDGE('',*,*,#189,.F.);
#243=ORIENTED_EDGE('',*,*,#190,.T.);
#244=ORIENTED_EDGE('',*,*,#184,.F.);
#245=ORIENTED_EDGE('',*,*,#190,.F.);
#246=ORIENTED_EDGE('',*,*,#167,.T.);
#247=ORIENTED_EDGE('',*,*,#191,.F.);
#248=ORIENTED_EDGE('',*,*,#180,.T.);
#249=ORIENTED_EDGE('',*,*,#186,.F.);
#250=ORIENTED_EDGE('',*,*,#166,.T.);
#251=ORIENTED_EDGE('',*,*,#188,.F.);
#252=ORIENTED_EDGE('',*,*,#181,.T.);
#253=ORIENTED_EDGE('',*,*,#191,.T.);
#254=ORIENTED_EDGE('',*,*,#169,.T.);
#255=ORIENTED_EDGE('',*,*,#192,.F.);
#256=ORIENTED_EDGE('',*,*,#173,.T.);
#257=ORIENTED_EDGE('',*,*,#185,.F.);
#258=ORIENTED_EDGE('',*,*,#189,.T.);
#259=ORIENTED_EDGE('',*,*,#172,.T.);
#260=ORIENTED_EDGE('',*,*,#183,.F.);
#261=ORIENTED_EDGE('',*,*,#174,.T.);
#262=ORIENTED_EDGE('',*,*,#192,.T.);
#263=PLANE('',#317);
#264=PLANE('',#324);
#265=PLANE('',#328);
#266=PLANE('',#330);
#267=PLANE('',#332);
#268=PLANE('',#333);
#269=PLANE('',#334);
#270=PLANE('',#336);
#271=PLANE('',#338);
#272=STYLED_ITEM('',(#569),#294);
#273=STYLED_ITEM('',(#569),#295);
#274=STYLED_ITEM('',(#569),#296);
#275=STYLED_ITEM('',(#569),#297);
#276=STYLED_ITEM('',(#569),#298);
#277=STYLED_ITEM('',(#569),#299);
#278=STYLED_ITEM('',(#569),#300);
#279=STYLED_ITEM('',(#569),#301);
#280=STYLED_ITEM('',(#569),#302);
#281=STYLED_ITEM('',(#569),#303);
#282=STYLED_ITEM('',(#569),#304);
#283=STYLED_ITEM('',(#569),#305);
#284=STYLED_ITEM('',(#569),#306);
#285=STYLED_ITEM('',(#569),#307);
#286=STYLED_ITEM('',(#569),#308);
#287=STYLED_ITEM('',(#569),#309);
#288=STYLED_ITEM('',(#569),#310);
#289=STYLED_ITEM('',(#569),#311);
#290=STYLED_ITEM('',(#569),#312);
#291=STYLED_ITEM('',(#569),#313);
#292=STYLED_ITEM('',(#569),#314);
#293=STYLED_ITEM('',(#568),#13);
#294=ADVANCED_FACE('',(#61,#50),#263,.F.);
#295=ADVANCED_FACE('',(#62,#51),#48,.T.);
#296=ADVANCED_FACE('',(#63,#52),#43,.F.);
#297=ADVANCED_FACE('',(#64,#53),#264,.T.);
#298=ADVANCED_FACE('',(#65,#54),#49,.T.);
#299=ADVANCED_FACE('',(#66),#265,.F.);
#300=ADVANCED_FACE('',(#67,#55),#266,.F.);
#301=ADVANCED_FACE('',(#68),#267,.F.);
#302=ADVANCED_FACE('',(#69),#268,.F.);
#303=ADVANCED_FACE('',(#70),#269,.F.);
#304=ADVANCED_FACE('',(#71,#56),#270,.F.);
#305=ADVANCED_FACE('',(#72,#57),#271,.T.);
#306=ADVANCED_FACE('',(#73),#44,.T.);
#307=ADVANCED_FACE('',(#74),#15,.T.);
#308=ADVANCED_FACE('',(#75,#58),#45,.T.);
#309=ADVANCED_FACE('',(#76),#16,.F.);
#310=ADVANCED_FACE('',(#77,#59),#46,.F.);
#311=ADVANCED_FACE('',(#78),#14,.T.);
#312=ADVANCED_FACE('',(#79),#17,.T.);
#313=ADVANCED_FACE('',(#80,#60),#18,.T.);
#314=ADVANCED_FACE('',(#81),#47,.T.);
#315=CLOSED_SHELL('',(#294,#295,#296,#297,#298,#299,#300,#301,#302,#303,
#304,#305,#306,#307,#308,#309,#310,#311,#312,#313,#314));
#316=AXIS2_PLACEMENT_3D('placement',#453,#359,#360);
#317=AXIS2_PLACEMENT_3D('',#454,#361,#362);
#318=AXIS2_PLACEMENT_3D('',#456,#363,#364);
#319=AXIS2_PLACEMENT_3D('',#458,#365,#366);
#320=AXIS2_PLACEMENT_3D('',#459,#367,#368);
#321=AXIS2_PLACEMENT_3D('',#461,#369,#370);
#322=AXIS2_PLACEMENT_3D('',#462,#371,#372);
#323=AXIS2_PLACEMENT_3D('',#464,#373,#374);
#324=AXIS2_PLACEMENT_3D('',#465,#375,#376);
#325=AXIS2_PLACEMENT_3D('',#467,#377,#378);
#326=AXIS2_PLACEMENT_3D('',#468,#379,#380);
#327=AXIS2_PLACEMENT_3D('',#470,#381,#382);
#328=AXIS2_PLACEMENT_3D('',#471,#383,#384);
#329=AXIS2_PLACEMENT_3D('',#474,#385,#386);
#330=AXIS2_PLACEMENT_3D('',#476,#388,#389);
#331=AXIS2_PLACEMENT_3D('',#482,#390,#391);
#332=AXIS2_PLACEMENT_3D('',#486,#392,#393);
#333=AXIS2_PLACEMENT_3D('',#497,#397,#398);
#334=AXIS2_PLACEMENT_3D('',#508,#402,#403);
#335=AXIS2_PLACEMENT_3D('',#511,#404,#405);
#336=AXIS2_PLACEMENT_3D('',#513,#407,#408);
#337=AXIS2_PLACEMENT_3D('',#519,#409,#410);
#338=AXIS2_PLACEMENT_3D('',#523,#411,#412);
#339=AXIS2_PLACEMENT_3D('',#524,#413,#414);
#340=AXIS2_PLACEMENT_3D('',#525,#415,#416);
#341=AXIS2_PLACEMENT_3D('',#527,#417,#418);
#342=AXIS2_PLACEMENT_3D('',#528,#419,#420);
#343=AXIS2_PLACEMENT_3D('',#529,#421,#422);
#344=AXIS2_PLACEMENT_3D('',#530,#423,#424);
#345=AXIS2_PLACEMENT_3D('',#531,#425,#426);
#346=AXIS2_PLACEMENT_3D('',#532,#427,#428);
#347=AXIS2_PLACEMENT_3D('',#533,#429,#430);
#348=AXIS2_PLACEMENT_3D('',#534,#431,#432);
#349=AXIS2_PLACEMENT_3D('',#536,#433,#434);
#350=AXIS2_PLACEMENT_3D('',#537,#435,#436);
#351=AXIS2_PLACEMENT_3D('',#539,#437,#438);
#352=AXIS2_PLACEMENT_3D('',#540,#439,#440);
#353=AXIS2_PLACEMENT_3D('',#541,#441,#442);
#354=AXIS2_PLACEMENT_3D('',#542,#443,#444);
#355=AXIS2_PLACEMENT_3D('',#543,#445,#446);
#356=AXIS2_PLACEMENT_3D('',#544,#447,#448);
#357=AXIS2_PLACEMENT_3D('',#545,#449,#450);
#358=AXIS2_PLACEMENT_3D('',#546,#451,#452);
#359=DIRECTION('axis',(0.,0.,1.));
#360=DIRECTION('refdir',(1.,0.,0.));
#361=DIRECTION('center_axis',(0.,-3.84964056878142E-16,1.));
#362=DIRECTION('ref_axis',(1.,0.,0.));
#363=DIRECTION('center_axis',(0.,3.84964056878142E-16,-1.));
#364=DIRECTION('ref_axis',(0.,1.,3.84964056878142E-16));
#365=DIRECTION('center_axis',(0.,3.84964056878142E-16,-1.));
#366=DIRECTION('ref_axis',(0.,1.,3.84964056878142E-16));
#367=DIRECTION('center_axis',(0.,-3.84964056878142E-16,1.));
#368=DIRECTION('ref_axis',(-1.,0.,0.));
#369=DIRECTION('center_axis',(0.,-2.2456236651225E-16,1.));
#370=DIRECTION('ref_axis',(1.,0.,0.));
#371=DIRECTION('center_axis',(0.,3.84964056878142E-16,-1.));
#372=DIRECTION('ref_axis',(0.,1.,3.84964056878142E-16));
#373=DIRECTION('center_axis',(0.,0.,-1.));
#374=DIRECTION('ref_axis',(0.,1.,0.));
#375=DIRECTION('center_axis',(0.,0.,1.));
#376=DIRECTION('ref_axis',(1.,0.,0.));
#377=DIRECTION('center_axis',(0.,0.,-1.));
#378=DIRECTION('ref_axis',(0.,1.,0.));
#379=DIRECTION('center_axis',(0.,0.,-1.));
#380=DIRECTION('ref_axis',(-1.,0.,0.));
#381=DIRECTION('center_axis',(0.,9.62410142195355E-17,-1.));
#382=DIRECTION('ref_axis',(-1.,0.,0.));
#383=DIRECTION('center_axis',(0.,-0.635269653338857,-0.772290403635011));
#384=DIRECTION('ref_axis',(-1.,0.,0.));
#385=DIRECTION('center_axis',(0.,-0.635269653338857,-0.772290403635011));
#386=DIRECTION('ref_axis',(-1.13377135578532E-16,-0.772290403635011,0.635269653338857));
#387=DIRECTION('',(1.,0.,0.));
#388=DIRECTION('center_axis',(0.,1.92482028439071E-16,-1.));
#389=DIRECTION('ref_axis',(-1.,0.,0.));
#390=DIRECTION('center_axis',(0.,1.92482028439071E-16,-1.));
#391=DIRECTION('ref_axis',(0.,-1.,-1.92482028439071E-16));
#392=DIRECTION('center_axis',(0.,0.,1.));
#393=DIRECTION('ref_axis',(1.,0.,0.));
#394=DIRECTION('',(1.46806350363657E-16,1.,0.));
#395=DIRECTION('',(1.,-1.46806350363657E-16,0.));
#396=DIRECTION('',(-1.46806350363657E-16,-1.,0.));
#397=DIRECTION('center_axis',(0.,0.,-1.));
#398=DIRECTION('ref_axis',(-1.,0.,0.));
#399=DIRECTION('',(1.46806350363657E-16,1.,0.));
#400=DIRECTION('',(-1.,1.46806350363657E-16,0.));
#401=DIRECTION('',(-1.46806350363657E-16,-1.,0.));
#402=DIRECTION('center_axis',(0.,-0.635269653338857,0.772290403635011));
#403=DIRECTION('ref_axis',(1.,0.,0.));
#404=DIRECTION('center_axis',(0.,-0.635269653338857,0.772290403635011));
#405=DIRECTION('ref_axis',(1.13377135578532E-16,0.772290403635011,0.635269653338857));
#406=DIRECTION('',(1.,0.,0.));
#407=DIRECTION('center_axis',(0.,-6.4160676146357E-17,1.));
#408=DIRECTION('ref_axis',(1.,0.,0.));
#409=DIRECTION('center_axis',(0.,-6.4160676146357E-17,1.));
#410=DIRECTION('ref_axis',(0.,1.,6.4160676146357E-17));
#411=DIRECTION('center_axis',(-1.46806350363657E-16,-1.,0.));
#412=DIRECTION('ref_axis',(0.,0.,-1.));
#413=DIRECTION('center_axis',(-1.46806350363657E-16,-1.,0.));
#414=DIRECTION('ref_axis',(1.,0.,0.));
#415=DIRECTION('center_axis',(-1.46806350363657E-16,-1.,0.));
#416=DIRECTION('ref_axis',(1.,0.,0.));
#417=DIRECTION('center_axis',(1.46806350363657E-16,1.,0.));
#418=DIRECTION('ref_axis',(1.,-1.46806350363657E-16,0.));
#419=DIRECTION('center_axis',(-1.46806350363657E-16,-1.,0.));
#420=DIRECTION('ref_axis',(1.,0.,0.));
#421=DIRECTION('center_axis',(-1.46806350363657E-16,-1.,0.));
#422=DIRECTION('ref_axis',(1.,0.,0.));
#423=DIRECTION('center_axis',(1.46806350363657E-16,1.,0.));
#424=DIRECTION('ref_axis',(1.,0.,0.));
#425=DIRECTION('center_axis',(-1.46806350363657E-16,-1.,0.));
#426=DIRECTION('ref_axis',(1.,0.,0.));
#427=DIRECTION('center_axis',(-1.46806350363657E-16,-1.,0.));
#428=DIRECTION('ref_axis',(1.,0.,0.));
#429=DIRECTION('center_axis',(-1.46806350363657E-16,-1.,0.));
#430=DIRECTION('ref_axis',(1.,0.,0.));
#431=DIRECTION('center_axis',(-1.46806350363657E-16,-1.,0.));
#432=DIRECTION('ref_axis',(1.,0.,0.));
#433=DIRECTION('center_axis',(-1.46806350363657E-16,-1.,0.));
#434=DIRECTION('ref_axis',(1.,0.,0.));
#435=DIRECTION('center_axis',(-1.46806350363657E-16,-1.,0.));
#436=DIRECTION('ref_axis',(1.,-1.46806350363657E-16,0.));
#437=DIRECTION('center_axis',(-1.46806350363657E-16,-1.,0.));
#438=DIRECTION('ref_axis',(1.,-1.46806350363657E-16,0.));
#439=DIRECTION('center_axis',(-1.46806350363657E-16,-1.,0.));
#440=DIRECTION('ref_axis',(1.,-1.46806350363657E-16,0.));
#441=DIRECTION('center_axis',(6.12323399573676E-17,0.,1.));
#442=DIRECTION('ref_axis',(1.,0.,0.));
#443=DIRECTION('center_axis',(-1.46806350363657E-16,-1.,0.));
#444=DIRECTION('ref_axis',(1.,0.,0.));
#445=DIRECTION('center_axis',(1.46806350363657E-16,1.,0.));
#446=DIRECTION('ref_axis',(1.,0.,0.));
#447=DIRECTION('center_axis',(-1.46806350363657E-16,-1.,0.));
#448=DIRECTION('ref_axis',(1.,0.,0.));
#449=DIRECTION('center_axis',(-1.46806350363657E-16,-1.,0.));
#450=DIRECTION('ref_axis',(1.,0.,0.));
#451=DIRECTION('center_axis',(-1.46806350363657E-16,-1.,0.));
#452=DIRECTION('ref_axis',(1.,0.,0.));
#453=CARTESIAN_POINT('',(0.,0.,0.));
#454=CARTESIAN_POINT('Origin',(0.,56.875,-7.99999999999999));
#455=CARTESIAN_POINT('',(0.,57.75,-7.99999999999999));
#456=CARTESIAN_POINT('Origin',(0.,50.,-7.99999999999999));
#457=CARTESIAN_POINT('',(0.,56.,-7.99999999999999));
#458=CARTESIAN_POINT('Origin',(0.,50.,-7.99999999999999));
#459=CARTESIAN_POINT('Origin',(0.,50.,-4.79182561829412));
#460=CARTESIAN_POINT('',(0.,59.5,-5.99999999999999));
#461=CARTESIAN_POINT('Origin',(0.,50.,-5.99999999999999));
#462=CARTESIAN_POINT('Origin',(0.,50.,-6.99999999999999));
#463=CARTESIAN_POINT('',(0.,56.,8.00000000000001));
#464=CARTESIAN_POINT('Origin',(0.,50.,8.00000000000001));
#465=CARTESIAN_POINT('Origin',(0.,56.875,8.00000000000001));
#466=CARTESIAN_POINT('',(0.,57.75,8.00000000000001));
#467=CARTESIAN_POINT('Origin',(0.,50.,8.00000000000001));
#468=CARTESIAN_POINT('Origin',(0.,50.,4.79182561829414));
#469=CARTESIAN_POINT('',(0.,59.5,6.00000000000001));
#470=CARTESIAN_POINT('Origin',(0.,50.,6.00000000000001));
#471=CARTESIAN_POINT('Origin',(-29.,33.,6.));
#472=CARTESIAN_POINT('',(6.36886960142849,33.,6.));
#473=CARTESIAN_POINT('',(-6.36886960142848,33.,6.));
#474=CARTESIAN_POINT('Origin',(5.91543485626094E-15,40.2941346992667,0.));
#475=CARTESIAN_POINT('',(-29.,33.,6.));
#476=CARTESIAN_POINT('Origin',(-29.,67.6075849354401,6.00000000000001));
#477=CARTESIAN_POINT('',(12.5558143965611,42.1037018268616,6.00000000000001));
#478=CARTESIAN_POINT('Ctrl Pts',(12.5558143965611,42.1037018268616,6.00000000000001));
#479=CARTESIAN_POINT('Ctrl Pts',(8.75730742482609,36.0637388625208,6.00000000000001));
#480=CARTESIAN_POINT('Ctrl Pts',(6.36886960142849,33.,6.));
#481=CARTESIAN_POINT('',(-12.5558143965611,42.1037018268616,6.00000000000001));
#482=CARTESIAN_POINT('Origin',(-1.77635683940025E-14,50.,6.00000000000001));
#483=CARTESIAN_POINT('Ctrl Pts',(-6.36886960142848,33.,6.));
#484=CARTESIAN_POINT('Ctrl Pts',(-8.75730742482621,36.063738862521,6.00000000000001));
#485=CARTESIAN_POINT('Ctrl Pts',(-12.5558143965611,42.1037018268616,6.00000000000001));
#486=CARTESIAN_POINT('Origin',(-29.,-1.24693870140284,-9.5));
#487=CARTESIAN_POINT('',(5.54526825320471,6.5,-9.5));
#488=CARTESIAN_POINT('',(-5.54526825320471,6.5,-9.5));
#489=CARTESIAN_POINT('Ctrl Pts',(5.5452682532047,6.5,-9.5));
#490=CARTESIAN_POINT('Ctrl Pts',(1.47383028128282E-15,8.79948142778519,
-9.5));
#491=CARTESIAN_POINT('Ctrl Pts',(-5.5452682532047,6.5,-9.5));
#492=CARTESIAN_POINT('',(5.54526825320471,-7.91715564102222E-16,-9.5));
#493=CARTESIAN_POINT('',(5.54526825320471,3.25,-9.5));
#494=CARTESIAN_POINT('',(-5.54526825320471,8.36445623978648E-16,-9.5));
#495=CARTESIAN_POINT('',(-11.75,2.84494650060196E-15,-9.5));
#496=CARTESIAN_POINT('',(-5.54526825320471,3.25,-9.5));
#497=CARTESIAN_POINT('Origin',(-29.,8.51040974770422,9.5));
#498=CARTESIAN_POINT('',(-5.54526825320471,6.5,9.5));
#499=CARTESIAN_POINT('',(5.54526825320471,6.5,9.5));
#500=CARTESIAN_POINT('Ctrl Pts',(-5.5452682532047,6.5,9.5));
#501=CARTESIAN_POINT('Ctrl Pts',(1.47383028128282E-15,8.79948142778519,
9.5));
#502=CARTESIAN_POINT('Ctrl Pts',(5.5452682532047,6.5,9.5));
#503=CARTESIAN_POINT('',(-5.54526825320471,9.05834563017721E-16,9.5));
#504=CARTESIAN_POINT('',(-5.54526825320471,3.25,9.5));
#505=CARTESIAN_POINT('',(5.54526825320471,-7.2232662506315E-16,9.5));
#506=CARTESIAN_POINT('',(-11.75,3.33066907387547E-15,9.5));
#507=CARTESIAN_POINT('',(5.54526825320471,3.25,9.5));
#508=CARTESIAN_POINT('Origin',(-29.,29.6568549295028,-8.75));
#509=CARTESIAN_POINT('',(-6.36886960142848,33.,-5.99999999999999));
#510=CARTESIAN_POINT('',(6.36886960142849,33.,-5.99999999999999));
#511=CARTESIAN_POINT('Origin',(5.91543485626093E-15,40.2941346992667,0.));
#512=CARTESIAN_POINT('',(-29.,33.,-6.));
#513=CARTESIAN_POINT('Origin',(-29.,33.,-6.));
#514=CARTESIAN_POINT('',(-12.5558143965611,42.1037018268616,-5.99999999999999));
#515=CARTESIAN_POINT('Ctrl Pts',(-12.5558143965611,42.1037018268616,-5.99999999999999));
#516=CARTESIAN_POINT('Ctrl Pts',(-8.75730742482618,36.0637388625209,-5.99999999999999));
#517=CARTESIAN_POINT('Ctrl Pts',(-6.36886960142848,33.,-5.99999999999999));
#518=CARTESIAN_POINT('',(12.5558143965611,42.1037018268616,-5.99999999999999));
#519=CARTESIAN_POINT('Origin',(-1.77635683940025E-14,50.,-5.99999999999999));
#520=CARTESIAN_POINT('Ctrl Pts',(6.36886960142849,33.,-5.99999999999999));
#521=CARTESIAN_POINT('Ctrl Pts',(8.75730742482621,36.063738862521,-5.99999999999999));
#522=CARTESIAN_POINT('Ctrl Pts',(12.5558143965611,42.1037018268616,-5.99999999999999));
#523=CARTESIAN_POINT('Origin',(5.5,3.36766747301154E-16,0.));
#524=CARTESIAN_POINT('Origin',(0.,0.,0.));
#525=CARTESIAN_POINT('Origin',(0.,0.,0.));
#526=CARTESIAN_POINT('',(5.3235,3.6267806814034E-16,0.));
#527=CARTESIAN_POINT('Origin',(0.,0.,0.));
#528=CARTESIAN_POINT('Origin',(4.77120638681885E-16,3.25,0.));
#529=CARTESIAN_POINT('Origin',(9.54241277363771E-16,6.5,0.));
#530=CARTESIAN_POINT('Origin',(5.51285018200093E-15,37.5518509134308,0.));
#531=CARTESIAN_POINT('Origin',(6.18109080200119E-15,42.1037018268616,0.));
#532=CARTESIAN_POINT('Origin',(4.84460956200068E-15,33.,0.));
#533=CARTESIAN_POINT('Origin',(3.03528017227602E-15,20.6754010624014,0.));
#534=CARTESIAN_POINT('Origin',(4.84460956200068E-15,33.,0.));
#535=CARTESIAN_POINT('',(8.75,8.35080212480272,0.));
#536=CARTESIAN_POINT('Origin',(1.22595078255136E-15,8.35080212480271,0.));
#537=CARTESIAN_POINT('Origin',(3.61133943725537E-15,24.5993407526966,0.));
#538=CARTESIAN_POINT('',(5.3235,23.,0.));
#539=CARTESIAN_POINT('Origin',(3.37654605836411E-15,23.,0.));
#540=CARTESIAN_POINT('Origin',(1.68827302918206E-15,11.5,0.));
#541=CARTESIAN_POINT('Origin',(-1.77635683940025E-14,50.,0.));
#542=CARTESIAN_POINT('Origin',(6.18109080200119E-15,42.1037018268616,0.));
#543=CARTESIAN_POINT('Origin',(5.51285018200093E-15,37.5518509134308,0.));
#544=CARTESIAN_POINT('Origin',(1.09009602995756E-15,7.42540106240136,0.));
#545=CARTESIAN_POINT('Origin',(9.54241277363771E-16,6.5,0.));
#546=CARTESIAN_POINT('Origin',(4.77120638681885E-16,3.25,0.));
#547=UNCERTAINTY_MEASURE_WITH_UNIT(LENGTH_MEASURE(0.01),#551,
'DISTANCE_ACCURACY_VALUE',
'Maximum model space distance between geometric entities at asserted c
onnectivities');
#548=UNCERTAINTY_MEASURE_WITH_UNIT(LENGTH_MEASURE(1.E-6),#551,
'DISTANCE_ACCURACY_VALUE',
'Maximum model space distance between geometric entities at asserted c
onnectivities');
#549=(
GEOMETRIC_REPRESENTATION_CONTEXT(3)
GLOBAL_UNCERTAINTY_ASSIGNED_CONTEXT((#547))
GLOBAL_UNIT_ASSIGNED_CONTEXT((#551,#554,#552))
REPRESENTATION_CONTEXT('','3D')
);
#550=(
GEOMETRIC_REPRESENTATION_CONTEXT(3)
GLOBAL_UNCERTAINTY_ASSIGNED_CONTEXT((#548))
GLOBAL_UNIT_ASSIGNED_CONTEXT((#551,#554,#552))
REPRESENTATION_CONTEXT('','3D')
);
#551=(
LENGTH_UNIT()
NAMED_UNIT(*)
SI_UNIT(.MILLI.,.METRE.)
);
#552=(
NAMED_UNIT(*)
SI_UNIT($,.STERADIAN.)
SOLID_ANGLE_UNIT()
);
#553=DIMENSIONAL_EXPONENTS(0.,0.,0.,0.,0.,0.,0.);
#554=(
CONVERSION_BASED_UNIT('degree',#556)
NAMED_UNIT(#553)
PLANE_ANGLE_UNIT()
);
#555=(
NAMED_UNIT(*)
PLANE_ANGLE_UNIT()
SI_UNIT($,.RADIAN.)
);
#556=PLANE_ANGLE_MEASURE_WITH_UNIT(PLANE_ANGLE_MEASURE(0.01745329252),#555);
#557=SHAPE_DEFINITION_REPRESENTATION(#558,#559);
#558=PRODUCT_DEFINITION_SHAPE('',$,#561);
#559=SHAPE_REPRESENTATION('',(#316),#549);
#560=PRODUCT_DEFINITION_CONTEXT('part definition',#565,'design');
#561=PRODUCT_DEFINITION('CAD_69551','CAD_69551',#562,#560);
#562=PRODUCT_DEFINITION_FORMATION('',$,#567);
#563=PRODUCT_RELATED_PRODUCT_CATEGORY('CAD_69551','CAD_69551',(#567));
#564=APPLICATION_PROTOCOL_DEFINITION('international standard',
'automotive_design',2009,#565);
#565=APPLICATION_CONTEXT(
'Core Data for Automotive Mechanical Design Process');
#566=PRODUCT_CONTEXT('part definition',#565,'mechanical');
#567=PRODUCT('CAD_69551','CAD_69551',$,(#566));
#568=PRESENTATION_STYLE_ASSIGNMENT((#570));
#569=PRESENTATION_STYLE_ASSIGNMENT((#571));
#570=SURFACE_STYLE_USAGE(.BOTH.,#572);
#571=SURFACE_STYLE_USAGE(.BOTH.,#573);
#572=SURFACE_SIDE_STYLE('',(#574));
#573=SURFACE_SIDE_STYLE('',(#575));
#574=SURFACE_STYLE_FILL_AREA(#576);
#575=SURFACE_STYLE_FILL_AREA(#577);
#576=FILL_AREA_STYLE('',(#578));
#577=FILL_AREA_STYLE('',(#579));
#578=FILL_AREA_STYLE_COLOUR('',#580);
#579=FILL_AREA_STYLE_COLOUR('',#581);
#580=COLOUR_RGB('',0.87843137254902,0.874509803921569,0.858823529411765);
#581=COLOUR_RGB('',0.67843137254902,0.768627450980392,0.811764705882353);
ENDSEC;
END-ISO-10303-21;
