ISO-10303-21;
HEADER;
/****************************************************************
 * Generated by software with PDE/Lib inside                    *
 * PDElib Version v51a, created 12/06/2005 Tue                  *
 * International Technegroup Inc. (www.iti-oh.com)              *
 ****************************************************************/
FILE_DESCRIPTION((''),'2;1');
FILE_NAME('SZ0971N.stp','2009-07-27T13:54:50',(''),(''),'Mechanical Desktop 2007','Mechanical Desktop 2007',', , ');
FILE_SCHEMA(('CONFIG_CONTROL_DESIGN'));
ENDSEC;
DATA;
#8=(NAMED_UNIT(*)PLANE_ANGLE_UNIT()SI_UNIT($,.RADIAN.));
#9=DIMENSIONAL_EXPONENTS(0.0,0.0,0.0,0.0,0.0,0.0,0.0);
#10=PLANE_ANGLE_MEASURE_WITH_UNIT(PLANE_ANGLE_MEASURE(0.017453292500000),#8);
#14=(CONVERSION_BASED_UNIT('DEGREE',#10)NAMED_UNIT(#9)PLANE_ANGLE_UNIT());
#18=(NAMED_UNIT(*)SI_UNIT($,.STERADIAN.)SOLID_ANGLE_UNIT());
#22=(LENGTH_UNIT()NAMED_UNIT(*)SI_UNIT(.MILLI.,.METRE.));
#23=UNCERTAINTY_MEASURE_WITH_UNIT(LENGTH_MEASURE(0.000001000000000),#22,'DISTANCE_ACCURACY_VALUE','');
#28=(GEOMETRIC_REPRESENTATION_CONTEXT(3)GLOBAL_UNCERTAINTY_ASSIGNED_CONTEXT((#23))GLOBAL_UNIT_ASSIGNED_CONTEXT((#14,#18,#22))REPRESENTATION_CONTEXT('None','None'));
#29=APPLICATION_CONTEXT('CONFIGURATION CONTROLLED 3D DESIGNS OF MECHANICAL PARTS AND ASSEMBLIES');
#30=APPLICATION_PROTOCOL_DEFINITION('INTERNATIONAL STANDARD','config_control_design',1995,#29);
#31=MECHANICAL_CONTEXT('3D Mechanical Parts',#29,'mechanical');
#32=PRODUCT('SZ0971N','SZ0971N',' ',(#31));
#33=PRODUCT_RELATED_PRODUCT_CATEGORY('detail',$,(#32));
#34=PRODUCT_CATEGORY('part',$);
#35=PRODUCT_CATEGORY_RELATIONSHIP('None','None',#34,#33);
#36=PERSON('1','Design','Joe',$,$,$);
#37=ORGANIZATION($,'None','None');
#38=PERSON_AND_ORGANIZATION(#36,#37);
#39=PERSON_AND_ORGANIZATION_ROLE('design_owner');
#40=CC_DESIGN_PERSON_AND_ORGANIZATION_ASSIGNMENT(#38,#39,(#32));
#41=PRODUCT_DEFINITION_FORMATION_WITH_SPECIFIED_SOURCE('None','None',#32,.NOT_KNOWN.);
#42=PERSON('2','Creator','Joe',$,$,$);
#43=ORGANIZATION($,'None','None');
#44=PERSON_AND_ORGANIZATION(#42,#43);
#45=PERSON_AND_ORGANIZATION_ROLE('creator');
#46=CC_DESIGN_PERSON_AND_ORGANIZATION_ASSIGNMENT(#44,#45,(#41));
#47=PERSON('3','Supplier','Joe',$,$,$);
#48=ORGANIZATION($,'None','None');
#49=PERSON_AND_ORGANIZATION(#47,#48);
#50=PERSON_AND_ORGANIZATION_ROLE('design_supplier');
#51=CC_DESIGN_PERSON_AND_ORGANIZATION_ASSIGNMENT(#49,#50,(#41));
#52=APPROVAL_STATUS('approved');
#53=APPROVAL(#52,'None');
#54=PERSON('4','Approver','Joe',$,$,$);
#55=ORGANIZATION($,'None','None');
#56=PERSON_AND_ORGANIZATION(#54,#55);
#57=APPROVAL_ROLE('approver');
#58=APPROVAL_PERSON_ORGANIZATION(#56,#53,#57);
#59=COORDINATED_UNIVERSAL_TIME_OFFSET(8,$,.BEHIND.);
#60=CALENDAR_DATE(1996,29,5);
#61=LOCAL_TIME(12,0,0.0,#59);
#62=DATE_AND_TIME(#60,#61);
#63=APPROVAL_DATE_TIME(#62,#53);
#64=CC_DESIGN_APPROVAL(#53,(#41));
#65=SECURITY_CLASSIFICATION_LEVEL('unclassified');
#66=SECURITY_CLASSIFICATION('security','None',#65);
#67=CC_DESIGN_SECURITY_CLASSIFICATION(#66,(#41));
#68=APPROVAL_STATUS('approved');
#69=APPROVAL(#68,'None');
#70=PERSON('5','Approver','Joe',$,$,$);
#71=ORGANIZATION($,'None','None');
#72=PERSON_AND_ORGANIZATION(#70,#71);
#73=APPROVAL_ROLE('approver');
#74=APPROVAL_PERSON_ORGANIZATION(#72,#69,#73);
#75=COORDINATED_UNIVERSAL_TIME_OFFSET(8,$,.BEHIND.);
#76=CALENDAR_DATE(1996,29,5);
#77=LOCAL_TIME(12,0,0.0,#75);
#78=DATE_AND_TIME(#76,#77);
#79=APPROVAL_DATE_TIME(#78,#69);
#80=CC_DESIGN_APPROVAL(#69,(#66));
#81=PERSON('6','Classifier','Joe',$,$,$);
#82=ORGANIZATION($,'None','None');
#83=PERSON_AND_ORGANIZATION(#81,#82);
#84=PERSON_AND_ORGANIZATION_ROLE('classification_officer');
#85=CC_DESIGN_PERSON_AND_ORGANIZATION_ASSIGNMENT(#83,#84,(#66));
#86=COORDINATED_UNIVERSAL_TIME_OFFSET(8,$,.BEHIND.);
#87=CALENDAR_DATE(1996,29,5);
#88=LOCAL_TIME(12,0,0.0,#86);
#89=DATE_AND_TIME(#87,#88);
#90=DATE_TIME_ROLE('classification_date');
#91=CC_DESIGN_DATE_AND_TIME_ASSIGNMENT(#89,#90,(#66));
#92=DESIGN_CONTEXT('Design Context',#29,'design');
#93=PRODUCT_DEFINITION('None','None',#41,#92);
#94=PERSON('7','Creator','Joe',$,$,$);
#95=ORGANIZATION($,'None','None');
#96=PERSON_AND_ORGANIZATION(#94,#95);
#97=PERSON_AND_ORGANIZATION_ROLE('creator');
#98=CC_DESIGN_PERSON_AND_ORGANIZATION_ASSIGNMENT(#96,#97,(#93));
#99=COORDINATED_UNIVERSAL_TIME_OFFSET(8,$,.BEHIND.);
#100=CALENDAR_DATE(1996,29,5);
#101=LOCAL_TIME(12,0,0.0,#99);
#102=DATE_AND_TIME(#100,#101);
#103=DATE_TIME_ROLE('creation_date');
#104=CC_DESIGN_DATE_AND_TIME_ASSIGNMENT(#102,#103,(#93));
#105=APPROVAL_STATUS('approved');
#106=APPROVAL(#105,'None');
#107=PERSON('8','Approver','Joe',$,$,$);
#108=ORGANIZATION($,'None','None');
#109=PERSON_AND_ORGANIZATION(#107,#108);
#110=APPROVAL_ROLE('approver');
#111=APPROVAL_PERSON_ORGANIZATION(#109,#106,#110);
#112=COORDINATED_UNIVERSAL_TIME_OFFSET(8,$,.BEHIND.);
#113=CALENDAR_DATE(1996,29,5);
#114=LOCAL_TIME(12,0,0.0,#112);
#115=DATE_AND_TIME(#113,#114);
#116=APPROVAL_DATE_TIME(#115,#106);
#117=CC_DESIGN_APPROVAL(#106,(#93));
#118=CARTESIAN_POINT('NONE',(0.0,0.0,0.0));
#119=DIRECTION('NONE',(0.0,0.0,1.0));
#120=DIRECTION('NONE',(1.0,0.0,0.0));
#121=AXIS2_PLACEMENT_3D('NONE',#118,#119,#120);
#122=SHAPE_REPRESENTATION('SR1',(#121),#28);
#123=PRODUCT_DEFINITION_SHAPE('PDS1','Test Part',#93);
#124=SHAPE_DEFINITION_REPRESENTATION(#123,#122);
#125=CARTESIAN_POINT('',(-2.219345E-014,-80.0,49.282032302755098));
#126=DIRECTION('',(-3.061567E-016,0.0,1.0));
#127=DIRECTION('',(-1.0,0.0,0.0));
#128=AXIS2_PLACEMENT_3D('',#125,#126,#127);
#129=CYLINDRICAL_SURFACE('',#128,4.0);
#130=CARTESIAN_POINT('',(-4.000000000000001,-80.0,-20.0));
#131=VERTEX_POINT('',#130);
#132=CARTESIAN_POINT('',(-4.000000000000002,-80.0,-17.500000000000000));
#133=VERTEX_POINT('',#132);
#134=CARTESIAN_POINT('',(-4.000000000000001,-80.0,-20.0));
#135=DIRECTION('',(0.0,0.0,1.0));
#136=VECTOR('',#135,2.500000000000000);
#137=LINE('',#134,#136);
#138=EDGE_CURVE('',#131,#133,#137,.T.);
#139=ORIENTED_EDGE('',*,*,#138,.F.);
#140=CARTESIAN_POINT('',(3.999999999999999,-80.0,-20.0));
#141=VERTEX_POINT('',#140);
#142=CARTESIAN_POINT('',(-9.822939E-016,-80.0,-20.0));
#143=DIRECTION('',(0.0,0.0,1.0));
#144=DIRECTION('',(-1.0,0.0,0.0));
#145=AXIS2_PLACEMENT_3D('',#142,#143,#144);
#146=CIRCLE('',#145,4.0);
#147=EDGE_CURVE('',#141,#131,#146,.T.);
#148=ORIENTED_EDGE('',*,*,#147,.F.);
#149=CARTESIAN_POINT('',(3.999999999999998,-79.999999999999972,-17.500000000000000));
#150=VERTEX_POINT('',#149);
#151=CARTESIAN_POINT('',(3.999999999999999,-80.0,-20.0));
#152=DIRECTION('',(0.0,0.0,1.0));
#153=VECTOR('',#152,2.500000000000000);
#154=LINE('',#151,#153);
#155=EDGE_CURVE('',#141,#150,#154,.T.);
#156=ORIENTED_EDGE('',*,*,#155,.T.);
#157=CARTESIAN_POINT('',(-1.747686E-015,-80.0,-17.500000000000000));
#158=DIRECTION('',(0.0,0.0,-1.0));
#159=DIRECTION('',(-1.0,0.0,0.0));
#160=AXIS2_PLACEMENT_3D('',#157,#158,#159);
#161=CIRCLE('',#160,4.0);
#162=EDGE_CURVE('',#133,#150,#161,.T.);
#163=ORIENTED_EDGE('',*,*,#162,.F.);
#164=EDGE_LOOP('',(#139,#148,#156,#163));
#165=FACE_OUTER_BOUND('',#164,.T.);
#166=ADVANCED_FACE('',(#165),#129,.F.);
#167=CARTESIAN_POINT('',(-1.012307E-014,-129.282032302755110,-9.238700E-031));
#168=DIRECTION('',(-6.123201E-017,-1.0,-1.874659E-032));
#169=DIRECTION('',(-1.0,0.0,0.0));
#170=AXIS2_PLACEMENT_3D('',#167,#168,#169);
#171=CYLINDRICAL_SURFACE('',#170,4.0);
#172=CARTESIAN_POINT('',(-4.000000000000005,-60.0,-1.224627E-015));
#173=VERTEX_POINT('',#172);
#174=CARTESIAN_POINT('',(-4.000000000000005,-62.500000000000000,-1.224627E-015));
#175=VERTEX_POINT('',#174);
#176=CARTESIAN_POINT('',(-4.000000000000005,-60.0,-1.224627E-015));
#177=DIRECTION('',(0.0,-1.0,0.0));
#178=VECTOR('',#177,2.500000000000000);
#179=LINE('',#176,#178);
#180=EDGE_CURVE('',#173,#175,#179,.T.);
#181=ORIENTED_EDGE('',*,*,#180,.F.);
#182=CARTESIAN_POINT('',(3.999999999999994,-60.0,1.714469E-015));
#183=VERTEX_POINT('',#182);
#184=CARTESIAN_POINT('',(-5.880787E-015,-60.0,3.749318E-031));
#185=DIRECTION('',(0.0,-1.0,0.0));
#186=DIRECTION('',(-1.0,0.0,0.0));
#187=AXIS2_PLACEMENT_3D('',#184,#185,#186);
#188=CIRCLE('',#187,4.0);
#189=EDGE_CURVE('',#183,#173,#188,.T.);
#190=ORIENTED_EDGE('',*,*,#189,.F.);
#191=CARTESIAN_POINT('',(3.999999999999994,-62.500000000000000,2.915649E-014));
#192=VERTEX_POINT('',#191);
#193=CARTESIAN_POINT('',(3.999999999999994,-60.0,1.714469E-015));
#194=DIRECTION('',(0.0,-1.0,0.0));
#195=VECTOR('',#194,2.500000000000000);
#196=LINE('',#193,#195);
#197=EDGE_CURVE('',#183,#192,#196,.T.);
#198=ORIENTED_EDGE('',*,*,#197,.T.);
#199=CARTESIAN_POINT('',(-6.033867E-015,-62.500000000000000,3.280653E-031));
#200=DIRECTION('',(0.0,1.0,0.0));
#201=DIRECTION('',(-1.0,0.0,0.0));
#202=AXIS2_PLACEMENT_3D('',#199,#200,#201);
#203=CIRCLE('',#202,4.0);
#204=EDGE_CURVE('',#175,#192,#203,.T.);
#205=ORIENTED_EDGE('',*,*,#204,.F.);
#206=EDGE_LOOP('',(#181,#190,#198,#205));
#207=FACE_OUTER_BOUND('',#206,.T.);
#208=ADVANCED_FACE('',(#207),#171,.F.);
#209=CARTESIAN_POINT('',(-1.012307E-014,-129.282032302755110,-9.238700E-031));
#210=DIRECTION('',(-6.123201E-017,-1.0,-1.874659E-032));
#211=DIRECTION('',(-1.0,0.0,0.0));
#212=AXIS2_PLACEMENT_3D('',#209,#210,#211);
#213=CYLINDRICAL_SURFACE('',#212,4.0);
#214=ORIENTED_EDGE('',*,*,#180,.T.);
#215=CARTESIAN_POINT('',(-6.033867E-015,-62.500000000000000,3.280653E-031));
#216=DIRECTION('',(0.0,1.0,0.0));
#217=DIRECTION('',(-1.0,0.0,0.0));
#218=AXIS2_PLACEMENT_3D('',#215,#216,#217);
#219=CIRCLE('',#218,4.0);
#220=EDGE_CURVE('',#192,#175,#219,.T.);
#221=ORIENTED_EDGE('',*,*,#220,.F.);
#222=ORIENTED_EDGE('',*,*,#197,.F.);
#223=CARTESIAN_POINT('',(-5.880787E-015,-60.0,3.749318E-031));
#224=DIRECTION('',(0.0,-1.0,0.0));
#225=DIRECTION('',(-1.0,0.0,0.0));
#226=AXIS2_PLACEMENT_3D('',#223,#224,#225);
#227=CIRCLE('',#226,4.0);
#228=EDGE_CURVE('',#173,#183,#227,.T.);
#229=ORIENTED_EDGE('',*,*,#228,.F.);
#230=EDGE_LOOP('',(#214,#221,#222,#229));
#231=FACE_OUTER_BOUND('',#230,.T.);
#232=ADVANCED_FACE('',(#231),#213,.F.);
#233=CARTESIAN_POINT('',(-2.219345E-014,-80.0,49.282032302755098));
#234=DIRECTION('',(-3.061567E-016,0.0,1.0));
#235=DIRECTION('',(-1.0,0.0,0.0));
#236=AXIS2_PLACEMENT_3D('',#233,#234,#235);
#237=CYLINDRICAL_SURFACE('',#236,4.0);
#238=ORIENTED_EDGE('',*,*,#138,.T.);
#239=CARTESIAN_POINT('',(-1.747686E-015,-80.0,-17.500000000000000));
#240=DIRECTION('',(0.0,0.0,-1.0));
#241=DIRECTION('',(-1.0,0.0,0.0));
#242=AXIS2_PLACEMENT_3D('',#239,#240,#241);
#243=CIRCLE('',#242,4.0);
#244=EDGE_CURVE('',#150,#133,#243,.T.);
#245=ORIENTED_EDGE('',*,*,#244,.F.);
#246=ORIENTED_EDGE('',*,*,#155,.F.);
#247=CARTESIAN_POINT('',(-9.822939E-016,-80.0,-20.0));
#248=DIRECTION('',(0.0,0.0,1.0));
#249=DIRECTION('',(-1.0,0.0,0.0));
#250=AXIS2_PLACEMENT_3D('',#247,#248,#249);
#251=CIRCLE('',#250,4.0);
#252=EDGE_CURVE('',#131,#141,#251,.T.);
#253=ORIENTED_EDGE('',*,*,#252,.F.);
#254=EDGE_LOOP('',(#238,#245,#246,#253));
#255=FACE_OUTER_BOUND('',#254,.T.);
#256=ADVANCED_FACE('',(#255),#237,.F.);
#257=CARTESIAN_POINT('',(17.499999999999986,-97.500000000000000,17.500000000000007));
#258=DIRECTION('',(-1.0,0.0,0.0));
#259=DIRECTION('',(0.0,-1.0,0.0));
#260=AXIS2_PLACEMENT_3D('',#257,#258,#259);
#261=PLANE('',#260);
#262=CARTESIAN_POINT('',(17.499999999999989,-62.500000000000000,17.500000000000007));
#263=VERTEX_POINT('',#262);
#264=CARTESIAN_POINT('',(17.499999999999996,-97.500000000000000,-17.499999999999993));
#265=VERTEX_POINT('',#264);
#266=CARTESIAN_POINT('',(17.499999999999989,-62.500000000000000,17.500000000000007));
#267=DIRECTION('',(1.435513E-016,-0.707106781186547,-0.707106781186547));
#268=VECTOR('',#267,49.497474683058329);
#269=LINE('',#266,#268);
#270=EDGE_CURVE('',#263,#265,#269,.T.);
#271=ORIENTED_EDGE('',*,*,#270,.F.);
#272=CARTESIAN_POINT('',(17.500000000000000,-62.500000000000000,-17.499999999999993));
#273=VERTEX_POINT('',#272);
#274=CARTESIAN_POINT('',(17.499999999999989,-62.500000000000000,17.500000000000007));
#275=DIRECTION('',(0.0,0.0,-1.0));
#276=VECTOR('',#275,35.0);
#277=LINE('',#274,#276);
#278=EDGE_CURVE('',#263,#273,#277,.T.);
#279=ORIENTED_EDGE('',*,*,#278,.T.);
#280=CARTESIAN_POINT('',(17.500000000000000,-62.500000000000000,-17.499999999999993));
#281=DIRECTION('',(0.0,-1.0,0.0));
#282=VECTOR('',#281,35.0);
#283=LINE('',#280,#282);
#284=EDGE_CURVE('',#273,#265,#283,.T.);
#285=ORIENTED_EDGE('',*,*,#284,.T.);
#286=EDGE_LOOP('',(#271,#279,#285));
#287=FACE_OUTER_BOUND('',#286,.T.);
#288=ADVANCED_FACE('',(#287),#261,.T.);
#289=CARTESIAN_POINT('',(-17.500000000000011,-62.500000000000000,17.499999999999993));
#290=DIRECTION('',(0.0,1.0,0.0));
#291=DIRECTION('',(-1.0,0.0,0.0));
#292=AXIS2_PLACEMENT_3D('',#289,#290,#291);
#293=PLANE('',#292);
#294=ORIENTED_EDGE('',*,*,#278,.F.);
#295=CARTESIAN_POINT('',(-17.500000000000011,-62.500000000000000,17.499999999999993));
#296=VERTEX_POINT('',#295);
#297=CARTESIAN_POINT('',(-17.500000000000011,-62.500000000000000,17.499999999999993));
#298=DIRECTION('',(1.0,0.0,0.0));
#299=VECTOR('',#298,35.0);
#300=LINE('',#297,#299);
#301=EDGE_CURVE('',#296,#263,#300,.T.);
#302=ORIENTED_EDGE('',*,*,#301,.F.);
#303=CARTESIAN_POINT('',(-17.500000000000000,-62.500000000000000,-17.500000000000007));
#304=VERTEX_POINT('',#303);
#305=CARTESIAN_POINT('',(-17.500000000000011,-62.500000000000000,17.499999999999993));
#306=DIRECTION('',(0.0,0.0,-1.0));
#307=VECTOR('',#306,35.0);
#308=LINE('',#305,#307);
#309=EDGE_CURVE('',#296,#304,#308,.T.);
#310=ORIENTED_EDGE('',*,*,#309,.T.);
#311=CARTESIAN_POINT('',(-17.500000000000000,-62.500000000000000,-17.500000000000007));
#312=DIRECTION('',(1.0,0.0,0.0));
#313=VECTOR('',#312,35.0);
#314=LINE('',#311,#313);
#315=EDGE_CURVE('',#304,#273,#314,.T.);
#316=ORIENTED_EDGE('',*,*,#315,.T.);
#317=EDGE_LOOP('',(#294,#302,#310,#316));
#318=FACE_OUTER_BOUND('',#317,.T.);
#319=ORIENTED_EDGE('',*,*,#220,.T.);
#320=ORIENTED_EDGE('',*,*,#204,.T.);
#321=EDGE_LOOP('',(#319,#320));
#322=FACE_BOUND('',#321,.T.);
#323=ADVANCED_FACE('',(#318,#322),#293,.F.);
#324=CARTESIAN_POINT('',(-17.500000000000000,-62.500000000000000,-17.500000000000007));
#325=DIRECTION('',(0.0,0.0,-1.0));
#326=DIRECTION('',(-1.0,0.0,0.0));
#327=AXIS2_PLACEMENT_3D('',#324,#325,#326);
#328=PLANE('',#327);
#329=ORIENTED_EDGE('',*,*,#284,.F.);
#330=ORIENTED_EDGE('',*,*,#315,.F.);
#331=CARTESIAN_POINT('',(-17.500000000000004,-97.500000000000000,-17.500000000000007));
#332=VERTEX_POINT('',#331);
#333=CARTESIAN_POINT('',(-17.500000000000000,-62.500000000000000,-17.500000000000007));
#334=DIRECTION('',(0.0,-1.0,0.0));
#335=VECTOR('',#334,35.0);
#336=LINE('',#333,#335);
#337=EDGE_CURVE('',#304,#332,#336,.T.);
#338=ORIENTED_EDGE('',*,*,#337,.T.);
#339=CARTESIAN_POINT('',(17.499999999999996,-97.500000000000000,-17.499999999999993));
#340=DIRECTION('',(-1.0,0.0,0.0));
#341=VECTOR('',#340,35.0);
#342=LINE('',#339,#341);
#343=EDGE_CURVE('',#265,#332,#342,.T.);
#344=ORIENTED_EDGE('',*,*,#343,.F.);
#345=EDGE_LOOP('',(#329,#330,#338,#344));
#346=FACE_OUTER_BOUND('',#345,.T.);
#347=ORIENTED_EDGE('',*,*,#244,.T.);
#348=ORIENTED_EDGE('',*,*,#162,.T.);
#349=EDGE_LOOP('',(#347,#348));
#350=FACE_BOUND('',#349,.T.);
#351=ADVANCED_FACE('',(#346,#350),#328,.F.);
#352=CARTESIAN_POINT('',(-17.500000000000007,-80.0,-5.357742E-015));
#353=DIRECTION('',(1.0,0.0,0.0));
#354=DIRECTION('',(0.0,1.0,0.0));
#355=AXIS2_PLACEMENT_3D('',#352,#353,#354);
#356=PLANE('',#355);
#357=CARTESIAN_POINT('',(-17.500000000000004,-97.500000000000000,-17.500000000000007));
#358=DIRECTION('',(-1.435513E-016,0.707106781186547,0.707106781186547));
#359=VECTOR('',#358,49.497474683058329);
#360=LINE('',#357,#359);
#361=EDGE_CURVE('',#332,#296,#360,.T.);
#362=ORIENTED_EDGE('',*,*,#361,.F.);
#363=ORIENTED_EDGE('',*,*,#337,.F.);
#364=ORIENTED_EDGE('',*,*,#309,.F.);
#365=EDGE_LOOP('',(#362,#363,#364));
#366=FACE_OUTER_BOUND('',#365,.T.);
#367=ADVANCED_FACE('',(#366),#356,.T.);
#368=CARTESIAN_POINT('',(-20.000000000000011,-60.0,19.999999999999993));
#369=DIRECTION('',(0.0,1.0,0.0));
#370=DIRECTION('',(-1.0,0.0,0.0));
#371=AXIS2_PLACEMENT_3D('',#368,#369,#370);
#372=PLANE('',#371);
#373=CARTESIAN_POINT('',(19.999999999999989,-60.0,20.000000000000007));
#374=VERTEX_POINT('',#373);
#375=CARTESIAN_POINT('',(20.0,-60.0,-19.999999999999993));
#376=VERTEX_POINT('',#375);
#377=CARTESIAN_POINT('',(19.999999999999989,-60.0,20.000000000000007));
#378=DIRECTION('',(0.0,0.0,-1.0));
#379=VECTOR('',#378,40.0);
#380=LINE('',#377,#379);
#381=EDGE_CURVE('',#374,#376,#380,.T.);
#382=ORIENTED_EDGE('',*,*,#381,.T.);
#383=CARTESIAN_POINT('',(-20.0,-60.0,-20.000000000000007));
#384=VERTEX_POINT('',#383);
#385=CARTESIAN_POINT('',(-20.0,-60.0,-20.000000000000007));
#386=DIRECTION('',(1.0,0.0,0.0));
#387=VECTOR('',#386,40.0);
#388=LINE('',#385,#387);
#389=EDGE_CURVE('',#384,#376,#388,.T.);
#390=ORIENTED_EDGE('',*,*,#389,.F.);
#391=CARTESIAN_POINT('',(-20.000000000000011,-60.0,19.999999999999993));
#392=VERTEX_POINT('',#391);
#393=CARTESIAN_POINT('',(-20.0,-60.0,-20.000000000000007));
#394=DIRECTION('',(0.0,0.0,1.0));
#395=VECTOR('',#394,40.0);
#396=LINE('',#393,#395);
#397=EDGE_CURVE('',#384,#392,#396,.T.);
#398=ORIENTED_EDGE('',*,*,#397,.T.);
#399=CARTESIAN_POINT('',(-20.000000000000011,-60.0,19.999999999999993));
#400=DIRECTION('',(1.0,0.0,0.0));
#401=VECTOR('',#400,40.0);
#402=LINE('',#399,#401);
#403=EDGE_CURVE('',#392,#374,#402,.T.);
#404=ORIENTED_EDGE('',*,*,#403,.T.);
#405=EDGE_LOOP('',(#382,#390,#398,#404));
#406=FACE_OUTER_BOUND('',#405,.T.);
#407=ORIENTED_EDGE('',*,*,#228,.T.);
#408=ORIENTED_EDGE('',*,*,#189,.T.);
#409=EDGE_LOOP('',(#407,#408));
#410=FACE_BOUND('',#409,.T.);
#411=ADVANCED_FACE('',(#406,#410),#372,.T.);
#412=CARTESIAN_POINT('',(-20.0,-60.0,-20.000000000000007));
#413=DIRECTION('',(0.0,0.0,-1.0));
#414=DIRECTION('',(-1.0,0.0,0.0));
#415=AXIS2_PLACEMENT_3D('',#412,#413,#414);
#416=PLANE('',#415);
#417=CARTESIAN_POINT('',(19.999999999999996,-100.0,-19.999999999999993));
#418=VERTEX_POINT('',#417);
#419=CARTESIAN_POINT('',(20.0,-60.0,-19.999999999999993));
#420=DIRECTION('',(0.0,-1.0,0.0));
#421=VECTOR('',#420,40.0);
#422=LINE('',#419,#421);
#423=EDGE_CURVE('',#376,#418,#422,.T.);
#424=ORIENTED_EDGE('',*,*,#423,.T.);
#425=CARTESIAN_POINT('',(-20.000000000000004,-100.0,-20.000000000000007));
#426=VERTEX_POINT('',#425);
#427=CARTESIAN_POINT('',(-20.000000000000004,-100.0,-20.000000000000007));
#428=DIRECTION('',(1.0,0.0,0.0));
#429=VECTOR('',#428,40.0);
#430=LINE('',#427,#429);
#431=EDGE_CURVE('',#426,#418,#430,.T.);
#432=ORIENTED_EDGE('',*,*,#431,.F.);
#433=CARTESIAN_POINT('',(-20.000000000000004,-100.0,-20.000000000000007));
#434=DIRECTION('',(0.0,1.0,0.0));
#435=VECTOR('',#434,40.0);
#436=LINE('',#433,#435);
#437=EDGE_CURVE('',#426,#384,#436,.T.);
#438=ORIENTED_EDGE('',*,*,#437,.T.);
#439=ORIENTED_EDGE('',*,*,#389,.T.);
#440=EDGE_LOOP('',(#424,#432,#438,#439));
#441=FACE_OUTER_BOUND('',#440,.T.);
#442=ORIENTED_EDGE('',*,*,#252,.T.);
#443=ORIENTED_EDGE('',*,*,#147,.T.);
#444=EDGE_LOOP('',(#442,#443));
#445=FACE_BOUND('',#444,.T.);
#446=ADVANCED_FACE('',(#441,#445),#416,.T.);
#447=CARTESIAN_POINT('',(-20.000000000000004,-100.0,-20.000000000000007));
#448=DIRECTION('',(-2.597830E-016,-0.707106781186548,0.707106781186548));
#449=DIRECTION('',(1.0,0.0,0.0));
#450=AXIS2_PLACEMENT_3D('',#447,#448,#449);
#451=PLANE('',#450);
#452=CARTESIAN_POINT('',(19.999999999999996,-100.0,-19.999999999999993));
#453=DIRECTION('',(-1.256074E-016,0.707106781186547,0.707106781186547));
#454=VECTOR('',#453,56.568542494923804);
#455=LINE('',#452,#454);
#456=EDGE_CURVE('',#418,#374,#455,.T.);
#457=ORIENTED_EDGE('',*,*,#456,.T.);
#458=ORIENTED_EDGE('',*,*,#403,.F.);
#459=CARTESIAN_POINT('',(-20.000000000000011,-60.0,19.999999999999993));
#460=DIRECTION('',(1.256074E-016,-0.707106781186547,-0.707106781186547));
#461=VECTOR('',#460,56.568542494923804);
#462=LINE('',#459,#461);
#463=EDGE_CURVE('',#392,#426,#462,.T.);
#464=ORIENTED_EDGE('',*,*,#463,.T.);
#465=ORIENTED_EDGE('',*,*,#431,.T.);
#466=EDGE_LOOP('',(#457,#458,#464,#465));
#467=FACE_OUTER_BOUND('',#466,.T.);
#468=ORIENTED_EDGE('',*,*,#343,.T.);
#469=ORIENTED_EDGE('',*,*,#361,.T.);
#470=ORIENTED_EDGE('',*,*,#301,.T.);
#471=ORIENTED_EDGE('',*,*,#270,.T.);
#472=EDGE_LOOP('',(#468,#469,#470,#471));
#473=FACE_BOUND('',#472,.T.);
#474=ADVANCED_FACE('',(#467,#473),#451,.T.);
#475=CARTESIAN_POINT('',(-20.000000000000004,-73.333333333333343,-6.666666666666749));
#476=DIRECTION('',(1.0,0.0,0.0));
#477=DIRECTION('',(0.0,1.0,0.0));
#478=AXIS2_PLACEMENT_3D('',#475,#476,#477);
#479=PLANE('',#478);
#480=ORIENTED_EDGE('',*,*,#463,.F.);
#481=ORIENTED_EDGE('',*,*,#397,.F.);
#482=ORIENTED_EDGE('',*,*,#437,.F.);
#483=EDGE_LOOP('',(#480,#481,#482));
#484=FACE_OUTER_BOUND('',#483,.T.);
#485=ADVANCED_FACE('',(#484),#479,.F.);
#486=CARTESIAN_POINT('',(19.999999999999989,-60.0,20.000000000000007));
#487=DIRECTION('',(-1.0,0.0,0.0));
#488=DIRECTION('',(0.0,-1.0,0.0));
#489=AXIS2_PLACEMENT_3D('',#486,#487,#488);
#490=PLANE('',#489);
#491=ORIENTED_EDGE('',*,*,#381,.F.);
#492=ORIENTED_EDGE('',*,*,#456,.F.);
#493=ORIENTED_EDGE('',*,*,#423,.F.);
#494=EDGE_LOOP('',(#491,#492,#493));
#495=FACE_OUTER_BOUND('',#494,.T.);
#496=ADVANCED_FACE('',(#495),#490,.F.);
#497=CLOSED_SHELL('',(#166,#208,#232,#256,#288,#323,#351,#367,#411,#446,#474,#485,#496));
#498=MANIFOLD_SOLID_BREP('4F5',#497);
#499=ADVANCED_BREP_SHAPE_REPRESENTATION('ABSR1',(#498),#28);
#500=SHAPE_REPRESENTATION_RELATIONSHIP('SRRPL1',' ',#499,#122);
ENDSEC;
END-ISO-10303-21;
