ISO-10303-21;
HEADER;
/* Generated by software containing ST-Developer
 * from STEP Tools, Inc. (www.steptools.com) 
 */

FILE_DESCRIPTION(
/* description */ ('D\X\E4mpfungsplatte f\X\FCr Teller 80'),
/* implementation_level */ '2;1');

FILE_NAME(
/* name */ 
'T:\\Produktinformationen\\MT\\B45\\3D-Files B45\\D\X\E4mpfungsplatten
\\403538559 D\X\E4mpfungsplatte f\X\FCr Teller 80.stp',
/* time_stamp */ '2020-01-24T14:13:04+01:00',
/* author */ ('wheldmann'),
/* organization */ (''),
/* preprocessor_version */ 'ST-DEVELOPER v17.2',
/* originating_system */ 'Autodesk Inventor 2019',
/* authorisation */ '');

FILE_SCHEMA (('AUTOMOTIVE_DESIGN { 1 0 10303 214 3 1 1 }'));
ENDSEC;

DATA;
#10=MECHANICAL_DESIGN_GEOMETRIC_PRESENTATION_REPRESENTATION('',(#13),#415);
#11=SHAPE_REPRESENTATION_RELATIONSHIP('SRR','None',#422,#12);
#12=ADVANCED_BREP_SHAPE_REPRESENTATION('',(#14),#414);
#13=STYLED_ITEM('',(#431),#14);
#14=MANIFOLD_SOLID_BREP('Volumenk\X\F6rper2',#211);
#15=FACE_BOUND('',#56,.T.);
#16=FACE_BOUND('',#58,.T.);
#17=FACE_BOUND('',#60,.T.);
#18=PLANE('',#263);
#19=PLANE('',#264);
#20=PLANE('',#265);
#21=PLANE('',#266);
#22=PLANE('',#267);
#23=LINE('',#381,#27);
#24=LINE('',#386,#28);
#25=LINE('',#393,#29);
#26=LINE('',#403,#30);
#27=VECTOR('',#308,7.74999999999999);
#28=VECTOR('',#315,34.);
#29=VECTOR('',#322,20.);
#30=VECTOR('',#333,8.);
#31=CYLINDRICAL_SURFACE('',#249,7.74999999999999);
#32=CYLINDRICAL_SURFACE('',#252,34.);
#33=CYLINDRICAL_SURFACE('',#253,20.);
#34=CYLINDRICAL_SURFACE('',#258,8.);
#35=FACE_OUTER_BOUND('',#47,.T.);
#36=FACE_OUTER_BOUND('',#48,.T.);
#37=FACE_OUTER_BOUND('',#49,.T.);
#38=FACE_OUTER_BOUND('',#50,.T.);
#39=FACE_OUTER_BOUND('',#51,.T.);
#40=FACE_OUTER_BOUND('',#52,.T.);
#41=FACE_OUTER_BOUND('',#53,.T.);
#42=FACE_OUTER_BOUND('',#54,.T.);
#43=FACE_OUTER_BOUND('',#55,.T.);
#44=FACE_OUTER_BOUND('',#57,.T.);
#45=FACE_OUTER_BOUND('',#59,.T.);
#46=FACE_OUTER_BOUND('',#61,.T.);
#47=EDGE_LOOP('',(#138,#139,#140,#141,#142,#143));
#48=EDGE_LOOP('',(#144,#145,#146,#147,#148,#149));
#49=EDGE_LOOP('',(#150,#151,#152,#153,#154,#155));
#50=EDGE_LOOP('',(#156,#157,#158,#159,#160,#161));
#51=EDGE_LOOP('',(#162,#163,#164,#165,#166,#167));
#52=EDGE_LOOP('',(#168,#169,#170,#171,#172,#173));
#53=EDGE_LOOP('',(#174,#175,#176,#177,#178,#179));
#54=EDGE_LOOP('',(#180,#181));
#55=EDGE_LOOP('',(#182,#183));
#56=EDGE_LOOP('',(#184,#185));
#57=EDGE_LOOP('',(#186,#187));
#58=EDGE_LOOP('',(#188,#189));
#59=EDGE_LOOP('',(#190,#191));
#60=EDGE_LOOP('',(#192,#193));
#61=EDGE_LOOP('',(#194,#195));
#62=CIRCLE('',#232,7.99999999999999);
#63=CIRCLE('',#233,7.99999999999999);
#64=CIRCLE('',#234,1.);
#65=CIRCLE('',#235,7.74999999999999);
#66=CIRCLE('',#236,7.74999999999999);
#67=CIRCLE('',#238,33.5);
#68=CIRCLE('',#239,33.5);
#69=CIRCLE('',#240,0.5);
#70=CIRCLE('',#241,34.);
#71=CIRCLE('',#242,34.);
#72=CIRCLE('',#244,33.5);
#73=CIRCLE('',#245,33.5);
#74=CIRCLE('',#246,0.5);
#75=CIRCLE('',#247,34.);
#76=CIRCLE('',#248,34.);
#77=CIRCLE('',#250,7.74999999999999);
#78=CIRCLE('',#251,7.74999999999999);
#79=CIRCLE('',#254,20.);
#80=CIRCLE('',#255,20.);
#81=CIRCLE('',#256,20.);
#82=CIRCLE('',#257,20.);
#83=CIRCLE('',#259,8.);
#84=CIRCLE('',#260,8.);
#85=CIRCLE('',#261,7.99999999999999);
#86=CIRCLE('',#262,7.99999999999999);
#87=VERTEX_POINT('',#350);
#88=VERTEX_POINT('',#351);
#89=VERTEX_POINT('',#354);
#90=VERTEX_POINT('',#356);
#91=VERTEX_POINT('',#360);
#92=VERTEX_POINT('',#361);
#93=VERTEX_POINT('',#364);
#94=VERTEX_POINT('',#366);
#95=VERTEX_POINT('',#370);
#96=VERTEX_POINT('',#371);
#97=VERTEX_POINT('',#374);
#98=VERTEX_POINT('',#376);
#99=VERTEX_POINT('',#380);
#100=VERTEX_POINT('',#382);
#101=VERTEX_POINT('',#388);
#102=VERTEX_POINT('',#389);
#103=VERTEX_POINT('',#392);
#104=VERTEX_POINT('',#394);
#105=VERTEX_POINT('',#398);
#106=VERTEX_POINT('',#399);
#107=VERTEX_POINT('',#402);
#108=VERTEX_POINT('',#404);
#109=EDGE_CURVE('',#87,#88,#62,.T.);
#110=EDGE_CURVE('',#88,#87,#63,.T.);
#111=EDGE_CURVE('',#88,#89,#64,.T.);
#112=EDGE_CURVE('',#89,#90,#65,.T.);
#113=EDGE_CURVE('',#90,#89,#66,.T.);
#114=EDGE_CURVE('',#91,#92,#67,.T.);
#115=EDGE_CURVE('',#92,#91,#68,.T.);
#116=EDGE_CURVE('',#92,#93,#69,.T.);
#117=EDGE_CURVE('',#94,#93,#70,.T.);
#118=EDGE_CURVE('',#93,#94,#71,.T.);
#119=EDGE_CURVE('',#95,#96,#72,.T.);
#120=EDGE_CURVE('',#96,#95,#73,.T.);
#121=EDGE_CURVE('',#96,#97,#74,.T.);
#122=EDGE_CURVE('',#98,#97,#75,.T.);
#123=EDGE_CURVE('',#97,#98,#76,.T.);
#124=EDGE_CURVE('',#89,#99,#23,.T.);
#125=EDGE_CURVE('',#99,#100,#77,.T.);
#126=EDGE_CURVE('',#100,#99,#78,.T.);
#127=EDGE_CURVE('',#93,#98,#24,.T.);
#128=EDGE_CURVE('',#101,#102,#79,.T.);
#129=EDGE_CURVE('',#102,#101,#80,.T.);
#130=EDGE_CURVE('',#102,#103,#25,.T.);
#131=EDGE_CURVE('',#103,#104,#81,.T.);
#132=EDGE_CURVE('',#104,#103,#82,.T.);
#133=EDGE_CURVE('',#105,#106,#83,.T.);
#134=EDGE_CURVE('',#106,#105,#84,.T.);
#135=EDGE_CURVE('',#106,#107,#26,.T.);
#136=EDGE_CURVE('',#107,#108,#85,.T.);
#137=EDGE_CURVE('',#108,#107,#86,.T.);
#138=ORIENTED_EDGE('',*,*,#109,.F.);
#139=ORIENTED_EDGE('',*,*,#110,.F.);
#140=ORIENTED_EDGE('',*,*,#111,.T.);
#141=ORIENTED_EDGE('',*,*,#112,.T.);
#142=ORIENTED_EDGE('',*,*,#113,.T.);
#143=ORIENTED_EDGE('',*,*,#111,.F.);
#144=ORIENTED_EDGE('',*,*,#114,.F.);
#145=ORIENTED_EDGE('',*,*,#115,.F.);
#146=ORIENTED_EDGE('',*,*,#116,.T.);
#147=ORIENTED_EDGE('',*,*,#117,.F.);
#148=ORIENTED_EDGE('',*,*,#118,.F.);
#149=ORIENTED_EDGE('',*,*,#116,.F.);
#150=ORIENTED_EDGE('',*,*,#119,.F.);
#151=ORIENTED_EDGE('',*,*,#120,.F.);
#152=ORIENTED_EDGE('',*,*,#121,.T.);
#153=ORIENTED_EDGE('',*,*,#122,.F.);
#154=ORIENTED_EDGE('',*,*,#123,.F.);
#155=ORIENTED_EDGE('',*,*,#121,.F.);
#156=ORIENTED_EDGE('',*,*,#113,.F.);
#157=ORIENTED_EDGE('',*,*,#112,.F.);
#158=ORIENTED_EDGE('',*,*,#124,.T.);
#159=ORIENTED_EDGE('',*,*,#125,.T.);
#160=ORIENTED_EDGE('',*,*,#126,.T.);
#161=ORIENTED_EDGE('',*,*,#124,.F.);
#162=ORIENTED_EDGE('',*,*,#117,.T.);
#163=ORIENTED_EDGE('',*,*,#127,.T.);
#164=ORIENTED_EDGE('',*,*,#122,.T.);
#165=ORIENTED_EDGE('',*,*,#123,.T.);
#166=ORIENTED_EDGE('',*,*,#127,.F.);
#167=ORIENTED_EDGE('',*,*,#118,.T.);
#168=ORIENTED_EDGE('',*,*,#128,.F.);
#169=ORIENTED_EDGE('',*,*,#129,.F.);
#170=ORIENTED_EDGE('',*,*,#130,.T.);
#171=ORIENTED_EDGE('',*,*,#131,.T.);
#172=ORIENTED_EDGE('',*,*,#132,.T.);
#173=ORIENTED_EDGE('',*,*,#130,.F.);
#174=ORIENTED_EDGE('',*,*,#133,.F.);
#175=ORIENTED_EDGE('',*,*,#134,.F.);
#176=ORIENTED_EDGE('',*,*,#135,.T.);
#177=ORIENTED_EDGE('',*,*,#136,.T.);
#178=ORIENTED_EDGE('',*,*,#137,.T.);
#179=ORIENTED_EDGE('',*,*,#135,.F.);
#180=ORIENTED_EDGE('',*,*,#133,.T.);
#181=ORIENTED_EDGE('',*,*,#134,.T.);
#182=ORIENTED_EDGE('',*,*,#128,.T.);
#183=ORIENTED_EDGE('',*,*,#129,.T.);
#184=ORIENTED_EDGE('',*,*,#137,.F.);
#185=ORIENTED_EDGE('',*,*,#136,.F.);
#186=ORIENTED_EDGE('',*,*,#114,.T.);
#187=ORIENTED_EDGE('',*,*,#115,.T.);
#188=ORIENTED_EDGE('',*,*,#132,.F.);
#189=ORIENTED_EDGE('',*,*,#131,.F.);
#190=ORIENTED_EDGE('',*,*,#119,.T.);
#191=ORIENTED_EDGE('',*,*,#120,.T.);
#192=ORIENTED_EDGE('',*,*,#109,.T.);
#193=ORIENTED_EDGE('',*,*,#110,.T.);
#194=ORIENTED_EDGE('',*,*,#126,.F.);
#195=ORIENTED_EDGE('',*,*,#125,.F.);
#196=TOROIDAL_SURFACE('',#231,7.99999999999999,1.);
#197=TOROIDAL_SURFACE('',#237,33.5,0.5);
#198=TOROIDAL_SURFACE('',#243,33.5,0.5);
#199=ADVANCED_FACE('',(#35),#196,.T.);
#200=ADVANCED_FACE('',(#36),#197,.T.);
#201=ADVANCED_FACE('',(#37),#198,.T.);
#202=ADVANCED_FACE('',(#38),#31,.F.);
#203=ADVANCED_FACE('',(#39),#32,.T.);
#204=ADVANCED_FACE('',(#40),#33,.F.);
#205=ADVANCED_FACE('',(#41),#34,.T.);
#206=ADVANCED_FACE('',(#42),#18,.T.);
#207=ADVANCED_FACE('',(#43,#15),#19,.T.);
#208=ADVANCED_FACE('',(#44,#16),#20,.T.);
#209=ADVANCED_FACE('',(#45,#17),#21,.T.);
#210=ADVANCED_FACE('',(#46),#22,.T.);
#211=CLOSED_SHELL('',(#199,#200,#201,#202,#203,#204,#205,#206,#207,#208,
#209,#210));
#212=DERIVED_UNIT_ELEMENT(#214,1.);
#213=DERIVED_UNIT_ELEMENT(#417,3.);
#214=(
MASS_UNIT()
NAMED_UNIT(*)
SI_UNIT($,.GRAM.)
);
#215=DERIVED_UNIT((#212,#213));
#216=MEASURE_REPRESENTATION_ITEM('density measure',
POSITIVE_RATIO_MEASURE(1.3),#215);
#217=PROPERTY_DEFINITION_REPRESENTATION(#222,#219);
#218=PROPERTY_DEFINITION_REPRESENTATION(#223,#220);
#219=REPRESENTATION('material name',(#221),#414);
#220=REPRESENTATION('density',(#216),#414);
#221=DESCRIPTIVE_REPRESENTATION_ITEM(
'TPE \X2\2013\X0\ Thermoplastische Elastomere',
'TPE \X2\2013\X0\ Thermoplastische Elastomere');
#222=PROPERTY_DEFINITION('material property','material name',#424);
#223=PROPERTY_DEFINITION('material property','density of part',#424);
#224=DATE_TIME_ROLE('creation_date');
#225=APPLIED_DATE_AND_TIME_ASSIGNMENT(#226,#224,(#424));
#226=DATE_AND_TIME(#227,#228);
#227=CALENDAR_DATE(2020,24,1);
#228=LOCAL_TIME(13,38,19.,#229);
#229=COORDINATED_UNIVERSAL_TIME_OFFSET(0,0,.BEHIND.);
#230=AXIS2_PLACEMENT_3D('placement',#348,#268,#269);
#231=AXIS2_PLACEMENT_3D('',#349,#270,#271);
#232=AXIS2_PLACEMENT_3D('',#352,#272,#273);
#233=AXIS2_PLACEMENT_3D('',#353,#274,#275);
#234=AXIS2_PLACEMENT_3D('',#355,#276,#277);
#235=AXIS2_PLACEMENT_3D('',#357,#278,#279);
#236=AXIS2_PLACEMENT_3D('',#358,#280,#281);
#237=AXIS2_PLACEMENT_3D('',#359,#282,#283);
#238=AXIS2_PLACEMENT_3D('',#362,#284,#285);
#239=AXIS2_PLACEMENT_3D('',#363,#286,#287);
#240=AXIS2_PLACEMENT_3D('',#365,#288,#289);
#241=AXIS2_PLACEMENT_3D('',#367,#290,#291);
#242=AXIS2_PLACEMENT_3D('',#368,#292,#293);
#243=AXIS2_PLACEMENT_3D('',#369,#294,#295);
#244=AXIS2_PLACEMENT_3D('',#372,#296,#297);
#245=AXIS2_PLACEMENT_3D('',#373,#298,#299);
#246=AXIS2_PLACEMENT_3D('',#375,#300,#301);
#247=AXIS2_PLACEMENT_3D('',#377,#302,#303);
#248=AXIS2_PLACEMENT_3D('',#378,#304,#305);
#249=AXIS2_PLACEMENT_3D('',#379,#306,#307);
#250=AXIS2_PLACEMENT_3D('',#383,#309,#310);
#251=AXIS2_PLACEMENT_3D('',#384,#311,#312);
#252=AXIS2_PLACEMENT_3D('',#385,#313,#314);
#253=AXIS2_PLACEMENT_3D('',#387,#316,#317);
#254=AXIS2_PLACEMENT_3D('',#390,#318,#319);
#255=AXIS2_PLACEMENT_3D('',#391,#320,#321);
#256=AXIS2_PLACEMENT_3D('',#395,#323,#324);
#257=AXIS2_PLACEMENT_3D('',#396,#325,#326);
#258=AXIS2_PLACEMENT_3D('',#397,#327,#328);
#259=AXIS2_PLACEMENT_3D('',#400,#329,#330);
#260=AXIS2_PLACEMENT_3D('',#401,#331,#332);
#261=AXIS2_PLACEMENT_3D('',#405,#334,#335);
#262=AXIS2_PLACEMENT_3D('',#406,#336,#337);
#263=AXIS2_PLACEMENT_3D('',#407,#338,#339);
#264=AXIS2_PLACEMENT_3D('',#408,#340,#341);
#265=AXIS2_PLACEMENT_3D('',#409,#342,#343);
#266=AXIS2_PLACEMENT_3D('',#410,#344,#345);
#267=AXIS2_PLACEMENT_3D('',#411,#346,#347);
#268=DIRECTION('axis',(0.,0.,1.));
#269=DIRECTION('refdir',(1.,0.,0.));
#270=DIRECTION('center_axis',(-2.31001217011698E-17,-2.22044604925031E-16,
-1.));
#271=DIRECTION('ref_axis',(-1.,0.,0.));
#272=DIRECTION('center_axis',(-2.31001217011698E-17,-2.22044604925031E-16,
-1.));
#273=DIRECTION('ref_axis',(-1.,5.12925739685639E-33,2.31001217011698E-17));
#274=DIRECTION('center_axis',(-2.31001217011698E-17,-2.22044604925031E-16,
-1.));
#275=DIRECTION('ref_axis',(-1.,5.12925739685639E-33,2.31001217011698E-17));
#276=DIRECTION('center_axis',(-1.22464679914735E-16,-1.,2.22044604925031E-16));
#277=DIRECTION('ref_axis',(1.,-1.22464679914735E-16,0.));
#278=DIRECTION('center_axis',(-2.31001217011698E-17,-2.22044604925031E-16,
-1.));
#279=DIRECTION('ref_axis',(-1.,5.12925739685639E-33,2.31001217011698E-17));
#280=DIRECTION('center_axis',(-2.31001217011698E-17,-2.22044604925031E-16,
-1.));
#281=DIRECTION('ref_axis',(-1.,5.12925739685639E-33,2.31001217011698E-17));
#282=DIRECTION('center_axis',(-2.31001217011698E-17,-2.22044604925031E-16,
-1.));
#283=DIRECTION('ref_axis',(-1.,5.07539185344401E-33,2.28575328599297E-17));
#284=DIRECTION('center_axis',(-2.31001217011698E-17,-2.22044604925031E-16,
-1.));
#285=DIRECTION('ref_axis',(-1.,5.12925739685639E-33,2.31001217011698E-17));
#286=DIRECTION('center_axis',(-2.31001217011698E-17,-2.22044604925031E-16,
-1.));
#287=DIRECTION('ref_axis',(-1.,5.12925739685639E-33,2.31001217011698E-17));
#288=DIRECTION('center_axis',(-1.22464679914735E-16,-1.,2.22044604925031E-16));
#289=DIRECTION('ref_axis',(1.,-1.22464679914735E-16,-2.24493626302881E-17));
#290=DIRECTION('center_axis',(2.31001217011698E-17,2.22044604925031E-16,
1.));
#291=DIRECTION('ref_axis',(-1.,5.12925739685639E-33,2.31001217011698E-17));
#292=DIRECTION('center_axis',(2.31001217011698E-17,2.22044604925031E-16,
1.));
#293=DIRECTION('ref_axis',(-1.,5.12925739685639E-33,2.31001217011698E-17));
#294=DIRECTION('center_axis',(2.31001217011698E-17,2.22044604925031E-16,
1.));
#295=DIRECTION('ref_axis',(1.,-5.80044783250744E-33,-2.61228946970625E-17));
#296=DIRECTION('center_axis',(2.31001217011698E-17,2.22044604925031E-16,
1.));
#297=DIRECTION('ref_axis',(1.,-5.12925739685639E-33,-2.31001217011698E-17));
#298=DIRECTION('center_axis',(2.31001217011698E-17,2.22044604925031E-16,
1.));
#299=DIRECTION('ref_axis',(1.,-5.12925739685639E-33,-2.31001217011698E-17));
#300=DIRECTION('center_axis',(1.22464679914735E-16,-1.,2.22044604925031E-16));
#301=DIRECTION('ref_axis',(-1.,-1.22464679914735E-16,3.26536183713281E-17));
#302=DIRECTION('center_axis',(-2.31001217011698E-17,-2.22044604925031E-16,
-1.));
#303=DIRECTION('ref_axis',(1.,-5.12925739685639E-33,-2.31001217011698E-17));
#304=DIRECTION('center_axis',(-2.31001217011698E-17,-2.22044604925031E-16,
-1.));
#305=DIRECTION('ref_axis',(1.,-5.12925739685639E-33,-2.31001217011698E-17));
#306=DIRECTION('center_axis',(-2.31001217011698E-17,-2.22044604925031E-16,
-1.));
#307=DIRECTION('ref_axis',(-1.,5.12925739685639E-33,2.31001217011698E-17));
#308=DIRECTION('',(-2.31001217011698E-17,-2.22044604925031E-16,-1.));
#309=DIRECTION('center_axis',(-2.31001217011698E-17,-2.22044604925031E-16,
-1.));
#310=DIRECTION('ref_axis',(-1.,5.12925739685639E-33,2.31001217011698E-17));
#311=DIRECTION('center_axis',(-2.31001217011698E-17,-2.22044604925031E-16,
-1.));
#312=DIRECTION('ref_axis',(-1.,5.12925739685639E-33,2.31001217011698E-17));
#313=DIRECTION('center_axis',(-2.31001217011698E-17,-2.22044604925031E-16,
-1.));
#314=DIRECTION('ref_axis',(-1.,5.12925739685639E-33,2.31001217011698E-17));
#315=DIRECTION('',(2.31001217011698E-17,2.22044604925031E-16,1.));
#316=DIRECTION('center_axis',(-2.31001217011698E-17,-2.22044604925031E-16,
-1.));
#317=DIRECTION('ref_axis',(-1.,5.12925739685639E-33,2.31001217011698E-17));
#318=DIRECTION('center_axis',(-2.31001217011698E-17,-2.22044604925031E-16,
-1.));
#319=DIRECTION('ref_axis',(-1.,5.12925739685639E-33,2.31001217011698E-17));
#320=DIRECTION('center_axis',(-2.31001217011698E-17,-2.22044604925031E-16,
-1.));
#321=DIRECTION('ref_axis',(-1.,5.12925739685639E-33,2.31001217011698E-17));
#322=DIRECTION('',(-2.31001217011698E-17,-2.22044604925031E-16,-1.));
#323=DIRECTION('center_axis',(-2.31001217011698E-17,-2.22044604925031E-16,
-1.));
#324=DIRECTION('ref_axis',(-1.,5.12925739685639E-33,2.31001217011698E-17));
#325=DIRECTION('center_axis',(-2.31001217011698E-17,-2.22044604925031E-16,
-1.));
#326=DIRECTION('ref_axis',(-1.,5.12925739685639E-33,2.31001217011698E-17));
#327=DIRECTION('center_axis',(-2.31001217011698E-17,-2.22044604925031E-16,
-1.));
#328=DIRECTION('ref_axis',(-1.,5.12925739685639E-33,2.31001217011698E-17));
#329=DIRECTION('center_axis',(-2.31001217011698E-17,-2.22044604925031E-16,
-1.));
#330=DIRECTION('ref_axis',(-1.,5.12925739685639E-33,2.31001217011698E-17));
#331=DIRECTION('center_axis',(-2.31001217011698E-17,-2.22044604925031E-16,
-1.));
#332=DIRECTION('ref_axis',(-1.,5.12925739685639E-33,2.31001217011698E-17));
#333=DIRECTION('',(2.31001217011698E-17,2.22044604925031E-16,1.));
#334=DIRECTION('center_axis',(-2.31001217011698E-17,-2.22044604925031E-16,
-1.));
#335=DIRECTION('ref_axis',(-1.,5.12925739685639E-33,2.31001217011698E-17));
#336=DIRECTION('center_axis',(-2.31001217011698E-17,-2.22044604925031E-16,
-1.));
#337=DIRECTION('ref_axis',(-1.,5.12925739685639E-33,2.31001217011698E-17));
#338=DIRECTION('center_axis',(-2.31001217011698E-17,-2.22044604925031E-16,
-1.));
#339=DIRECTION('ref_axis',(-1.,5.12925739685639E-33,2.31001217011698E-17));
#340=DIRECTION('center_axis',(-2.31001217011698E-17,-2.22044604925031E-16,
-1.));
#341=DIRECTION('ref_axis',(-1.,5.12925739685639E-33,2.31001217011698E-17));
#342=DIRECTION('center_axis',(-2.31001217011698E-17,-2.22044604925031E-16,
-1.));
#343=DIRECTION('ref_axis',(-1.,5.12925739685639E-33,2.31001217011698E-17));
#344=DIRECTION('center_axis',(2.31001217011698E-17,2.22044604925031E-16,
1.));
#345=DIRECTION('ref_axis',(1.,-5.12925739685639E-33,-2.31001217011698E-17));
#346=DIRECTION('center_axis',(2.31001217011698E-17,2.22044604925031E-16,
1.));
#347=DIRECTION('ref_axis',(1.,-5.12925739685639E-33,-2.31001217011698E-17));
#348=CARTESIAN_POINT('',(0.,0.,0.));
#349=CARTESIAN_POINT('Origin',(0.,1.33226762955019E-15,6.));
#350=CARTESIAN_POINT('',(-7.99999999999999,1.55431223447522E-15,7.));
#351=CARTESIAN_POINT('',(7.99999999999999,5.74594795157342E-16,7.00000000000001));
#352=CARTESIAN_POINT('Origin',(-5.23589371653915E-16,1.55431223447522E-15,
7.00000000000001));
#353=CARTESIAN_POINT('Origin',(-5.23589371653915E-16,1.55431223447522E-15,
7.00000000000001));
#354=CARTESIAN_POINT('',(7.74999999999999,1.68172595963528E-16,5.03175416344814));
#355=CARTESIAN_POINT('Origin',(7.99999999999999,3.52550190232309E-16,6.));
#356=CARTESIAN_POINT('',(-7.74999999999999,1.11727386530272E-15,5.03175416344814));
#357=CARTESIAN_POINT('Origin',(-5.69056090016084E-16,1.11727386530272E-15,
5.03175416344814));
#358=CARTESIAN_POINT('Origin',(-5.69056090016084E-16,1.11727386530272E-15,
5.03175416344814));
#359=CARTESIAN_POINT('Origin',(-6.73740162711519E-16,1.11022302462516E-16,
0.5));
#360=CARTESIAN_POINT('',(-33.5,7.736832304157E-31,3.48435950820295E-15));
#361=CARTESIAN_POINT('',(33.5,-4.10256677714363E-15,1.93760241931433E-15));
#362=CARTESIAN_POINT('Origin',(-6.85290223562104E-16,6.01853107621011E-31,
2.71050543121376E-15));
#363=CARTESIAN_POINT('Origin',(-6.85290223562104E-16,6.01853107621011E-31,
2.71050543121376E-15));
#364=CARTESIAN_POINT('',(34.,-4.05277681463849E-15,0.499999999999999));
#365=CARTESIAN_POINT('Origin',(33.5,-3.99154447468112E-15,0.499999999999999));
#366=CARTESIAN_POINT('',(-34.,1.11022302462516E-16,0.500000000000001));
#367=CARTESIAN_POINT('Origin',(-6.73740162711519E-16,1.11022302462516E-16,
0.5));
#368=CARTESIAN_POINT('Origin',(-6.73740162711519E-16,1.11022302462516E-16,
0.5));
#369=CARTESIAN_POINT('Origin',(-5.351394325045E-16,1.44328993201271E-15,
6.50000000000001));
#370=CARTESIAN_POINT('',(33.5,1.55431223447522E-15,7.));
#371=CARTESIAN_POINT('',(-33.5,-2.54825454266841E-15,7.));
#372=CARTESIAN_POINT('Origin',(-5.23589371653915E-16,1.55431223447522E-15,
7.));
#373=CARTESIAN_POINT('Origin',(-5.23589371653915E-16,1.55431223447522E-15,
7.));
#374=CARTESIAN_POINT('',(-34.,-2.72050918508829E-15,6.50000000000001));
#375=CARTESIAN_POINT('Origin',(-33.5,-2.65927684513092E-15,6.50000000000001));
#376=CARTESIAN_POINT('',(34.,5.60708904911371E-15,6.50000000000001));
#377=CARTESIAN_POINT('Origin',(-5.351394325045E-16,1.44328993201271E-15,
6.50000000000001));
#378=CARTESIAN_POINT('Origin',(-5.351394325045E-16,1.44328993201271E-15,
6.50000000000001));
#379=CARTESIAN_POINT('Origin',(-1.57080827567955E-15,-8.51183853401274E-15,
-38.3339128500176));
#380=CARTESIAN_POINT('',(7.74999999999999,-5.05012059489148E-16,2.));
#381=CARTESIAN_POINT('',(7.74999999999999,-9.46093980335194E-15,-38.3339128500176));
#382=CARTESIAN_POINT('',(-7.74999999999999,4.44089209850063E-16,2.));
#383=CARTESIAN_POINT('Origin',(-6.39089980159765E-16,4.44089209850063E-16,
2.));
#384=CARTESIAN_POINT('Origin',(-6.39089980159765E-16,4.44089209850063E-16,
2.));
#385=CARTESIAN_POINT('Origin',(-1.57080827567955E-15,-8.51183853401274E-15,
-38.3339128500176));
#386=CARTESIAN_POINT('',(34.,-1.26756376511137E-14,-38.3339128500176));
#387=CARTESIAN_POINT('Origin',(-1.57080827567955E-15,-8.51183853401274E-15,
-38.3339128500176));
#388=CARTESIAN_POINT('',(-20.,8.88178419700136E-17,0.400000000000005));
#389=CARTESIAN_POINT('',(20.,-2.36047575632471E-15,0.400000000000005));
#390=CARTESIAN_POINT('Origin',(-6.76050174881636E-16,8.88178419700136E-17,
0.400000000000005));
#391=CARTESIAN_POINT('Origin',(-6.76050174881636E-16,8.88178419700136E-17,
0.400000000000005));
#392=CARTESIAN_POINT('',(20.,-2.44929359829472E-15,0.));
#393=CARTESIAN_POINT('',(20.,-1.09611321323074E-14,-38.3339128500176));
#394=CARTESIAN_POINT('',(-20.,1.02585147937128E-31,4.62002434023397E-16));
#395=CARTESIAN_POINT('Origin',(-6.85290223562104E-16,0.,0.));
#396=CARTESIAN_POINT('Origin',(-6.85290223562104E-16,0.,0.));
#397=CARTESIAN_POINT('Origin',(-1.57080827567955E-15,-8.51183853401274E-15,
-38.3339128500176));
#398=CARTESIAN_POINT('',(-8.,4.10340591748513E-32,1.84800973609359E-16));
#399=CARTESIAN_POINT('',(8.,-9.79717439317896E-16,0.));
#400=CARTESIAN_POINT('Origin',(-6.85290223562104E-16,0.,0.));
#401=CARTESIAN_POINT('Origin',(-6.85290223562104E-16,0.,0.));
#402=CARTESIAN_POINT('',(8.,-8.90899597347884E-16,0.4));
#403=CARTESIAN_POINT('',(8.,-9.49155597333062E-15,-38.3339128500176));
#404=CARTESIAN_POINT('',(-7.99999999999999,8.88178419700121E-17,0.399999999999998));
#405=CARTESIAN_POINT('Origin',(-6.76050174881636E-16,8.88178419700121E-17,
0.399999999999998));
#406=CARTESIAN_POINT('Origin',(-6.76050174881636E-16,8.88178419700121E-17,
0.399999999999998));
#407=CARTESIAN_POINT('Origin',(1.03881385761085E-32,9.98535919367766E-32,
4.49700599438073E-16));
#408=CARTESIAN_POINT('Origin',(-7.99999999999999,8.8817841970013E-17,0.400000000000002));
#409=CARTESIAN_POINT('Origin',(-20.,6.91185130547194E-31,3.11282109637637E-15));
#410=CARTESIAN_POINT('Origin',(-34.,1.55431223447522E-15,7.00000000000001));
#411=CARTESIAN_POINT('Origin',(-7.74999999999999,4.44089209850063E-16,2.));
#412=UNCERTAINTY_MEASURE_WITH_UNIT(LENGTH_MEASURE(0.01),#416,
'DISTANCE_ACCURACY_VALUE',
'Maximum model space distance between geometric entities at asserted c
onnectivities');
#413=UNCERTAINTY_MEASURE_WITH_UNIT(LENGTH_MEASURE(0.01),#416,
'DISTANCE_ACCURACY_VALUE',
'Maximum model space distance between geometric entities at asserted c
onnectivities');
#414=(
GEOMETRIC_REPRESENTATION_CONTEXT(3)
GLOBAL_UNCERTAINTY_ASSIGNED_CONTEXT((#412))
GLOBAL_UNIT_ASSIGNED_CONTEXT((#416,#418,#419))
REPRESENTATION_CONTEXT('','3D')
);
#415=(
GEOMETRIC_REPRESENTATION_CONTEXT(3)
GLOBAL_UNCERTAINTY_ASSIGNED_CONTEXT((#413))
GLOBAL_UNIT_ASSIGNED_CONTEXT((#416,#418,#419))
REPRESENTATION_CONTEXT('','3D')
);
#416=(
LENGTH_UNIT()
NAMED_UNIT(*)
SI_UNIT(.MILLI.,.METRE.)
);
#417=(
LENGTH_UNIT()
NAMED_UNIT(*)
SI_UNIT(.CENTI.,.METRE.)
);
#418=(
NAMED_UNIT(*)
PLANE_ANGLE_UNIT()
SI_UNIT($,.RADIAN.)
);
#419=(
NAMED_UNIT(*)
SI_UNIT($,.STERADIAN.)
SOLID_ANGLE_UNIT()
);
#420=SHAPE_DEFINITION_REPRESENTATION(#421,#422);
#421=PRODUCT_DEFINITION_SHAPE('',$,#424);
#422=SHAPE_REPRESENTATION('',(#230),#414);
#423=PRODUCT_DEFINITION_CONTEXT('part definition',#428,'design');
#424=PRODUCT_DEFINITION('403538559',
'403538559 D\X\E4mpfungsplatte f\X\FCr Teller 80',#425,#423);
#425=PRODUCT_DEFINITION_FORMATION('',$,#430);
#426=PRODUCT_RELATED_PRODUCT_CATEGORY(
'403538559 D\X\E4mpfungsplatte f\X\FCr Teller 80',
'403538559 D\X\E4mpfungsplatte f\X\FCr Teller 80',(#430));
#427=APPLICATION_PROTOCOL_DEFINITION('international standard',
'automotive_design',2009,#428);
#428=APPLICATION_CONTEXT(
'Core Data for Automotive Mechanical Design Process');
#429=PRODUCT_CONTEXT('part definition',#428,'mechanical');
#430=PRODUCT('403538559','403538559 D\X\E4mpfungsplatte f\X\FCr Teller
 80','D\X\E4mpfungsplatte f\X\FCr Teller 80',(#429));
#431=PRESENTATION_STYLE_ASSIGNMENT((#432));
#432=SURFACE_STYLE_USAGE(.BOTH.,#435);
#433=SURFACE_STYLE_RENDERING_WITH_PROPERTIES($,#439,(#434));
#434=SURFACE_STYLE_TRANSPARENT(0.);
#435=SURFACE_SIDE_STYLE('',(#436,#433));
#436=SURFACE_STYLE_FILL_AREA(#437);
#437=FILL_AREA_STYLE('',(#438));
#438=FILL_AREA_STYLE_COLOUR('',#439);
#439=COLOUR_RGB('',0.,0.,0.);
ENDSEC;
END-ISO-10303-21;
