ISO-10303-21;
HEADER;
/****************************************************************
 * Generated by software with PDE/Lib inside                    *
 * PDElib Version v51a, created 12/06/2005 Tue                  *
 * International Technegroup Inc. (www.iti-oh.com)              *
 ****************************************************************/
FILE_DESCRIPTION((''),'2;1');
FILE_NAME('SZ0973N.stp','2009-07-27T13:54:36',(''),(''),'Mechanical Desktop 2007','Mechanical Desktop 2007',', , ');
FILE_SCHEMA(('CONFIG_CONTROL_DESIGN'));
ENDSEC;
DATA;
#8=(NAMED_UNIT(*)PLANE_ANGLE_UNIT()SI_UNIT($,.RADIAN.));
#9=DIMENSIONAL_EXPONENTS(0.0,0.0,0.0,0.0,0.0,0.0,0.0);
#10=PLANE_ANGLE_MEASURE_WITH_UNIT(PLANE_ANGLE_MEASURE(0.017453292500000),#8);
#14=(CONVERSION_BASED_UNIT('DEGREE',#10)NAMED_UNIT(#9)PLANE_ANGLE_UNIT());
#18=(NAMED_UNIT(*)SI_UNIT($,.STERADIAN.)SOLID_ANGLE_UNIT());
#22=(LENGTH_UNIT()NAMED_UNIT(*)SI_UNIT(.MILLI.,.METRE.));
#23=UNCERTAINTY_MEASURE_WITH_UNIT(LENGTH_MEASURE(0.000001000000000),#22,'DISTANCE_ACCURACY_VALUE','');
#28=(GEOMETRIC_REPRESENTATION_CONTEXT(3)GLOBAL_UNCERTAINTY_ASSIGNED_CONTEXT((#23))GLOBAL_UNIT_ASSIGNED_CONTEXT((#14,#18,#22))REPRESENTATION_CONTEXT('None','None'));
#29=APPLICATION_CONTEXT('CONFIGURATION CONTROLLED 3D DESIGNS OF MECHANICAL PARTS AND ASSEMBLIES');
#30=APPLICATION_PROTOCOL_DEFINITION('INTERNATIONAL STANDARD','config_control_design',1995,#29);
#31=MECHANICAL_CONTEXT('3D Mechanical Parts',#29,'mechanical');
#32=PRODUCT('SZ0973N','SZ0973N',' ',(#31));
#33=PRODUCT_RELATED_PRODUCT_CATEGORY('detail',$,(#32));
#34=PRODUCT_CATEGORY('part',$);
#35=PRODUCT_CATEGORY_RELATIONSHIP('None','None',#34,#33);
#36=PERSON('1','Design','Joe',$,$,$);
#37=ORGANIZATION($,'None','None');
#38=PERSON_AND_ORGANIZATION(#36,#37);
#39=PERSON_AND_ORGANIZATION_ROLE('design_owner');
#40=CC_DESIGN_PERSON_AND_ORGANIZATION_ASSIGNMENT(#38,#39,(#32));
#41=PRODUCT_DEFINITION_FORMATION_WITH_SPECIFIED_SOURCE('None','None',#32,.NOT_KNOWN.);
#42=PERSON('2','Creator','Joe',$,$,$);
#43=ORGANIZATION($,'None','None');
#44=PERSON_AND_ORGANIZATION(#42,#43);
#45=PERSON_AND_ORGANIZATION_ROLE('creator');
#46=CC_DESIGN_PERSON_AND_ORGANIZATION_ASSIGNMENT(#44,#45,(#41));
#47=PERSON('3','Supplier','Joe',$,$,$);
#48=ORGANIZATION($,'None','None');
#49=PERSON_AND_ORGANIZATION(#47,#48);
#50=PERSON_AND_ORGANIZATION_ROLE('design_supplier');
#51=CC_DESIGN_PERSON_AND_ORGANIZATION_ASSIGNMENT(#49,#50,(#41));
#52=APPROVAL_STATUS('approved');
#53=APPROVAL(#52,'None');
#54=PERSON('4','Approver','Joe',$,$,$);
#55=ORGANIZATION($,'None','None');
#56=PERSON_AND_ORGANIZATION(#54,#55);
#57=APPROVAL_ROLE('approver');
#58=APPROVAL_PERSON_ORGANIZATION(#56,#53,#57);
#59=COORDINATED_UNIVERSAL_TIME_OFFSET(8,$,.BEHIND.);
#60=CALENDAR_DATE(1996,29,5);
#61=LOCAL_TIME(12,0,0.0,#59);
#62=DATE_AND_TIME(#60,#61);
#63=APPROVAL_DATE_TIME(#62,#53);
#64=CC_DESIGN_APPROVAL(#53,(#41));
#65=SECURITY_CLASSIFICATION_LEVEL('unclassified');
#66=SECURITY_CLASSIFICATION('security','None',#65);
#67=CC_DESIGN_SECURITY_CLASSIFICATION(#66,(#41));
#68=APPROVAL_STATUS('approved');
#69=APPROVAL(#68,'None');
#70=PERSON('5','Approver','Joe',$,$,$);
#71=ORGANIZATION($,'None','None');
#72=PERSON_AND_ORGANIZATION(#70,#71);
#73=APPROVAL_ROLE('approver');
#74=APPROVAL_PERSON_ORGANIZATION(#72,#69,#73);
#75=COORDINATED_UNIVERSAL_TIME_OFFSET(8,$,.BEHIND.);
#76=CALENDAR_DATE(1996,29,5);
#77=LOCAL_TIME(12,0,0.0,#75);
#78=DATE_AND_TIME(#76,#77);
#79=APPROVAL_DATE_TIME(#78,#69);
#80=CC_DESIGN_APPROVAL(#69,(#66));
#81=PERSON('6','Classifier','Joe',$,$,$);
#82=ORGANIZATION($,'None','None');
#83=PERSON_AND_ORGANIZATION(#81,#82);
#84=PERSON_AND_ORGANIZATION_ROLE('classification_officer');
#85=CC_DESIGN_PERSON_AND_ORGANIZATION_ASSIGNMENT(#83,#84,(#66));
#86=COORDINATED_UNIVERSAL_TIME_OFFSET(8,$,.BEHIND.);
#87=CALENDAR_DATE(1996,29,5);
#88=LOCAL_TIME(12,0,0.0,#86);
#89=DATE_AND_TIME(#87,#88);
#90=DATE_TIME_ROLE('classification_date');
#91=CC_DESIGN_DATE_AND_TIME_ASSIGNMENT(#89,#90,(#66));
#92=DESIGN_CONTEXT('Design Context',#29,'design');
#93=PRODUCT_DEFINITION('None','None',#41,#92);
#94=PERSON('7','Creator','Joe',$,$,$);
#95=ORGANIZATION($,'None','None');
#96=PERSON_AND_ORGANIZATION(#94,#95);
#97=PERSON_AND_ORGANIZATION_ROLE('creator');
#98=CC_DESIGN_PERSON_AND_ORGANIZATION_ASSIGNMENT(#96,#97,(#93));
#99=COORDINATED_UNIVERSAL_TIME_OFFSET(8,$,.BEHIND.);
#100=CALENDAR_DATE(1996,29,5);
#101=LOCAL_TIME(12,0,0.0,#99);
#102=DATE_AND_TIME(#100,#101);
#103=DATE_TIME_ROLE('creation_date');
#104=CC_DESIGN_DATE_AND_TIME_ASSIGNMENT(#102,#103,(#93));
#105=APPROVAL_STATUS('approved');
#106=APPROVAL(#105,'None');
#107=PERSON('8','Approver','Joe',$,$,$);
#108=ORGANIZATION($,'None','None');
#109=PERSON_AND_ORGANIZATION(#107,#108);
#110=APPROVAL_ROLE('approver');
#111=APPROVAL_PERSON_ORGANIZATION(#109,#106,#110);
#112=COORDINATED_UNIVERSAL_TIME_OFFSET(8,$,.BEHIND.);
#113=CALENDAR_DATE(1996,29,5);
#114=LOCAL_TIME(12,0,0.0,#112);
#115=DATE_AND_TIME(#113,#114);
#116=APPROVAL_DATE_TIME(#115,#106);
#117=CC_DESIGN_APPROVAL(#106,(#93));
#118=CARTESIAN_POINT('NONE',(0.0,0.0,0.0));
#119=DIRECTION('NONE',(0.0,0.0,1.0));
#120=DIRECTION('NONE',(1.0,0.0,0.0));
#121=AXIS2_PLACEMENT_3D('NONE',#118,#119,#120);
#122=SHAPE_REPRESENTATION('SR1',(#121),#28);
#123=PRODUCT_DEFINITION_SHAPE('PDS1','Test Part',#93);
#124=SHAPE_DEFINITION_REPRESENTATION(#123,#122);
#125=CARTESIAN_POINT('',(-206.142176489530750,-191.942271033851340,174.089200031825210));
#126=DIRECTION('',(3.061567E-016,-1.836970E-016,1.0));
#127=DIRECTION('',(1.0,0.0,0.0));
#128=AXIS2_PLACEMENT_3D('',#125,#126,#127);
#129=CYLINDRICAL_SURFACE('',#128,4.0);
#130=CARTESIAN_POINT('',(-202.142176489530810,-191.942271033851310,54.089200031825193));
#131=VERTEX_POINT('',#130);
#132=CARTESIAN_POINT('',(-202.142176489530780,-191.942271033851310,56.589200031825186));
#133=VERTEX_POINT('',#132);
#134=CARTESIAN_POINT('',(-202.142176489530810,-191.942271033851310,54.089200031825193));
#135=DIRECTION('',(0.0,0.0,1.0));
#136=VECTOR('',#135,2.499999999999993);
#137=LINE('',#134,#136);
#138=EDGE_CURVE('',#131,#133,#137,.T.);
#139=ORIENTED_EDGE('',*,*,#138,.F.);
#140=CARTESIAN_POINT('',(-210.142176489530780,-191.942271033851310,54.089200031825186));
#141=VERTEX_POINT('',#140);
#142=CARTESIAN_POINT('',(-206.142176489530810,-191.942271033851310,54.089200031825193));
#143=DIRECTION('',(0.0,0.0,1.0));
#144=DIRECTION('',(1.0,0.0,0.0));
#145=AXIS2_PLACEMENT_3D('',#142,#143,#144);
#146=CIRCLE('',#145,4.0);
#147=EDGE_CURVE('',#141,#131,#146,.T.);
#148=ORIENTED_EDGE('',*,*,#147,.F.);
#149=CARTESIAN_POINT('',(-210.142176489530810,-191.942271033851340,56.589200031825193));
#150=VERTEX_POINT('',#149);
#151=CARTESIAN_POINT('',(-210.142176489530780,-191.942271033851310,54.089200031825186));
#152=DIRECTION('',(0.0,0.0,1.0));
#153=VECTOR('',#152,2.500000000000007);
#154=LINE('',#151,#153);
#155=EDGE_CURVE('',#141,#150,#154,.T.);
#156=ORIENTED_EDGE('',*,*,#155,.T.);
#157=CARTESIAN_POINT('',(-206.142176489530780,-191.942271033851310,56.589200031825193));
#158=DIRECTION('',(0.0,0.0,-1.0));
#159=DIRECTION('',(1.0,0.0,0.0));
#160=AXIS2_PLACEMENT_3D('',#157,#158,#159);
#161=CIRCLE('',#160,4.0);
#162=EDGE_CURVE('',#133,#150,#161,.T.);
#163=ORIENTED_EDGE('',*,*,#162,.F.);
#164=EDGE_LOOP('',(#139,#148,#156,#163));
#165=FACE_OUTER_BOUND('',#164,.T.);
#166=ADVANCED_FACE('',(#165),#129,.F.);
#167=CARTESIAN_POINT('',(-206.142176489530750,-151.942271033851340,174.089200031825210));
#168=DIRECTION('',(3.061567E-016,-1.836970E-016,1.0));
#169=DIRECTION('',(1.0,0.0,0.0));
#170=AXIS2_PLACEMENT_3D('',#167,#168,#169);
#171=CYLINDRICAL_SURFACE('',#170,4.0);
#172=CARTESIAN_POINT('',(-202.142176489530780,-151.942271033851310,54.089200031825207));
#173=VERTEX_POINT('',#172);
#174=CARTESIAN_POINT('',(-202.142176489530780,-151.942271033851310,56.589200031825214));
#175=VERTEX_POINT('',#174);
#176=CARTESIAN_POINT('',(-202.142176489530780,-151.942271033851310,54.089200031825207));
#177=DIRECTION('',(0.0,0.0,1.0));
#178=VECTOR('',#177,2.500000000000007);
#179=LINE('',#176,#178);
#180=EDGE_CURVE('',#173,#175,#179,.T.);
#181=ORIENTED_EDGE('',*,*,#180,.F.);
#182=CARTESIAN_POINT('',(-210.142176489530780,-151.942271033851310,54.089200031825214));
#183=VERTEX_POINT('',#182);
#184=CARTESIAN_POINT('',(-206.142176489530780,-151.942271033851310,54.089200031825207));
#185=DIRECTION('',(0.0,0.0,1.0));
#186=DIRECTION('',(1.0,0.0,0.0));
#187=AXIS2_PLACEMENT_3D('',#184,#185,#186);
#188=CIRCLE('',#187,4.0);
#189=EDGE_CURVE('',#183,#173,#188,.T.);
#190=ORIENTED_EDGE('',*,*,#189,.F.);
#191=CARTESIAN_POINT('',(-210.142176489530780,-151.942271033851340,56.589200031825207));
#192=VERTEX_POINT('',#191);
#193=CARTESIAN_POINT('',(-210.142176489530780,-151.942271033851310,54.089200031825214));
#194=DIRECTION('',(0.0,0.0,1.0));
#195=VECTOR('',#194,2.499999999999993);
#196=LINE('',#193,#195);
#197=EDGE_CURVE('',#183,#192,#196,.T.);
#198=ORIENTED_EDGE('',*,*,#197,.T.);
#199=CARTESIAN_POINT('',(-206.142176489530780,-151.942271033851310,56.589200031825207));
#200=DIRECTION('',(0.0,0.0,-1.0));
#201=DIRECTION('',(1.0,0.0,0.0));
#202=AXIS2_PLACEMENT_3D('',#199,#200,#201);
#203=CIRCLE('',#202,4.0);
#204=EDGE_CURVE('',#175,#192,#203,.T.);
#205=ORIENTED_EDGE('',*,*,#204,.F.);
#206=EDGE_LOOP('',(#181,#190,#198,#205));
#207=FACE_OUTER_BOUND('',#206,.T.);
#208=ADVANCED_FACE('',(#207),#171,.F.);
#209=CARTESIAN_POINT('',(-206.142176489530780,-251.942271033851340,114.089200031825190));
#210=DIRECTION('',(-1.224606E-016,-1.0,-1.836970E-016));
#211=DIRECTION('',(1.0,0.0,0.0));
#212=AXIS2_PLACEMENT_3D('',#209,#210,#211);
#213=CYLINDRICAL_SURFACE('',#212,4.0);
#214=CARTESIAN_POINT('',(-202.142176489530780,-131.942271033851310,114.089200031825210));
#215=VERTEX_POINT('',#214);
#216=CARTESIAN_POINT('',(-202.142176489530750,-134.442271033851310,114.089200031825210));
#217=VERTEX_POINT('',#216);
#218=CARTESIAN_POINT('',(-202.142176489530780,-131.942271033851310,114.089200031825210));
#219=DIRECTION('',(0.0,-1.0,0.0));
#220=VECTOR('',#219,2.500000000000000);
#221=LINE('',#218,#220);
#222=EDGE_CURVE('',#215,#217,#221,.T.);
#223=ORIENTED_EDGE('',*,*,#222,.F.);
#224=CARTESIAN_POINT('',(-210.142176489530750,-131.942271033851310,114.089200031825210));
#225=VERTEX_POINT('',#224);
#226=CARTESIAN_POINT('',(-206.142176489530780,-131.942271033851310,114.089200031825210));
#227=DIRECTION('',(0.0,-1.0,0.0));
#228=DIRECTION('',(1.0,0.0,0.0));
#229=AXIS2_PLACEMENT_3D('',#226,#227,#228);
#230=CIRCLE('',#229,4.0);
#231=EDGE_CURVE('',#225,#215,#230,.T.);
#232=ORIENTED_EDGE('',*,*,#231,.F.);
#233=CARTESIAN_POINT('',(-210.142176489530780,-134.442271033851310,114.089200031825190));
#234=VERTEX_POINT('',#233);
#235=CARTESIAN_POINT('',(-210.142176489530750,-131.942271033851310,114.089200031825210));
#236=DIRECTION('',(0.0,-1.0,0.0));
#237=VECTOR('',#236,2.500000000000000);
#238=LINE('',#235,#237);
#239=EDGE_CURVE('',#225,#234,#238,.T.);
#240=ORIENTED_EDGE('',*,*,#239,.T.);
#241=CARTESIAN_POINT('',(-206.142176489530780,-134.442271033851310,114.089200031825210));
#242=DIRECTION('',(0.0,1.0,0.0));
#243=DIRECTION('',(1.0,0.0,0.0));
#244=AXIS2_PLACEMENT_3D('',#241,#242,#243);
#245=CIRCLE('',#244,4.0);
#246=EDGE_CURVE('',#217,#234,#245,.T.);
#247=ORIENTED_EDGE('',*,*,#246,.F.);
#248=EDGE_LOOP('',(#223,#232,#240,#247));
#249=FACE_OUTER_BOUND('',#248,.T.);
#250=ADVANCED_FACE('',(#249),#213,.F.);
#251=CARTESIAN_POINT('',(-206.142176489530810,-251.942271033851340,74.089200031825186));
#252=DIRECTION('',(-1.224606E-016,-1.0,-1.836970E-016));
#253=DIRECTION('',(1.0,0.0,0.0));
#254=AXIS2_PLACEMENT_3D('',#251,#252,#253);
#255=CYLINDRICAL_SURFACE('',#254,4.0);
#256=CARTESIAN_POINT('',(-202.142176489530780,-131.942271033851310,74.089200031825214));
#257=VERTEX_POINT('',#256);
#258=CARTESIAN_POINT('',(-202.142176489530780,-134.442271033851310,74.089200031825214));
#259=VERTEX_POINT('',#258);
#260=CARTESIAN_POINT('',(-202.142176489530780,-131.942271033851310,74.089200031825214));
#261=DIRECTION('',(0.0,-1.0,0.0));
#262=VECTOR('',#261,2.500000000000000);
#263=LINE('',#260,#262);
#264=EDGE_CURVE('',#257,#259,#263,.T.);
#265=ORIENTED_EDGE('',*,*,#264,.F.);
#266=CARTESIAN_POINT('',(-210.142176489530780,-131.942271033851310,74.089200031825214));
#267=VERTEX_POINT('',#266);
#268=CARTESIAN_POINT('',(-206.142176489530780,-131.942271033851310,74.089200031825214));
#269=DIRECTION('',(0.0,-1.0,0.0));
#270=DIRECTION('',(1.0,0.0,0.0));
#271=AXIS2_PLACEMENT_3D('',#268,#269,#270);
#272=CIRCLE('',#271,4.0);
#273=EDGE_CURVE('',#267,#257,#272,.T.);
#274=ORIENTED_EDGE('',*,*,#273,.F.);
#275=CARTESIAN_POINT('',(-210.142176489530780,-134.442271033851310,74.089200031825186));
#276=VERTEX_POINT('',#275);
#277=CARTESIAN_POINT('',(-210.142176489530780,-131.942271033851310,74.089200031825214));
#278=DIRECTION('',(0.0,-1.0,0.0));
#279=VECTOR('',#278,2.500000000000000);
#280=LINE('',#277,#279);
#281=EDGE_CURVE('',#267,#276,#280,.T.);
#282=ORIENTED_EDGE('',*,*,#281,.T.);
#283=CARTESIAN_POINT('',(-206.142176489530780,-134.442271033851310,74.089200031825214));
#284=DIRECTION('',(0.0,1.0,0.0));
#285=DIRECTION('',(1.0,0.0,0.0));
#286=AXIS2_PLACEMENT_3D('',#283,#284,#285);
#287=CIRCLE('',#286,4.0);
#288=EDGE_CURVE('',#259,#276,#287,.T.);
#289=ORIENTED_EDGE('',*,*,#288,.F.);
#290=EDGE_LOOP('',(#265,#274,#282,#289));
#291=FACE_OUTER_BOUND('',#290,.T.);
#292=ADVANCED_FACE('',(#291),#255,.F.);
#293=CARTESIAN_POINT('',(-206.142176489530810,-251.942271033851340,74.089200031825186));
#294=DIRECTION('',(-1.224606E-016,-1.0,-1.836970E-016));
#295=DIRECTION('',(1.0,0.0,0.0));
#296=AXIS2_PLACEMENT_3D('',#293,#294,#295);
#297=CYLINDRICAL_SURFACE('',#296,4.0);
#298=ORIENTED_EDGE('',*,*,#264,.T.);
#299=CARTESIAN_POINT('',(-206.142176489530780,-134.442271033851310,74.089200031825214));
#300=DIRECTION('',(0.0,1.0,0.0));
#301=DIRECTION('',(1.0,0.0,0.0));
#302=AXIS2_PLACEMENT_3D('',#299,#300,#301);
#303=CIRCLE('',#302,4.0);
#304=EDGE_CURVE('',#276,#259,#303,.T.);
#305=ORIENTED_EDGE('',*,*,#304,.F.);
#306=ORIENTED_EDGE('',*,*,#281,.F.);
#307=CARTESIAN_POINT('',(-206.142176489530780,-131.942271033851310,74.089200031825214));
#308=DIRECTION('',(0.0,-1.0,0.0));
#309=DIRECTION('',(1.0,0.0,0.0));
#310=AXIS2_PLACEMENT_3D('',#307,#308,#309);
#311=CIRCLE('',#310,4.0);
#312=EDGE_CURVE('',#257,#267,#311,.T.);
#313=ORIENTED_EDGE('',*,*,#312,.F.);
#314=EDGE_LOOP('',(#298,#305,#306,#313));
#315=FACE_OUTER_BOUND('',#314,.T.);
#316=ADVANCED_FACE('',(#315),#297,.F.);
#317=CARTESIAN_POINT('',(-206.142176489530780,-251.942271033851340,114.089200031825190));
#318=DIRECTION('',(-1.224606E-016,-1.0,-1.836970E-016));
#319=DIRECTION('',(1.0,0.0,0.0));
#320=AXIS2_PLACEMENT_3D('',#317,#318,#319);
#321=CYLINDRICAL_SURFACE('',#320,4.0);
#322=ORIENTED_EDGE('',*,*,#222,.T.);
#323=CARTESIAN_POINT('',(-206.142176489530780,-134.442271033851310,114.089200031825210));
#324=DIRECTION('',(0.0,1.0,0.0));
#325=DIRECTION('',(1.0,0.0,0.0));
#326=AXIS2_PLACEMENT_3D('',#323,#324,#325);
#327=CIRCLE('',#326,4.0);
#328=EDGE_CURVE('',#234,#217,#327,.T.);
#329=ORIENTED_EDGE('',*,*,#328,.F.);
#330=ORIENTED_EDGE('',*,*,#239,.F.);
#331=CARTESIAN_POINT('',(-206.142176489530780,-131.942271033851310,114.089200031825210));
#332=DIRECTION('',(0.0,-1.0,0.0));
#333=DIRECTION('',(1.0,0.0,0.0));
#334=AXIS2_PLACEMENT_3D('',#331,#332,#333);
#335=CIRCLE('',#334,4.0);
#336=EDGE_CURVE('',#215,#225,#335,.T.);
#337=ORIENTED_EDGE('',*,*,#336,.F.);
#338=EDGE_LOOP('',(#322,#329,#330,#337));
#339=FACE_OUTER_BOUND('',#338,.T.);
#340=ADVANCED_FACE('',(#339),#321,.F.);
#341=CARTESIAN_POINT('',(-206.142176489530750,-151.942271033851340,174.089200031825210));
#342=DIRECTION('',(3.061567E-016,-1.836970E-016,1.0));
#343=DIRECTION('',(1.0,0.0,0.0));
#344=AXIS2_PLACEMENT_3D('',#341,#342,#343);
#345=CYLINDRICAL_SURFACE('',#344,4.0);
#346=ORIENTED_EDGE('',*,*,#180,.T.);
#347=CARTESIAN_POINT('',(-206.142176489530780,-151.942271033851310,56.589200031825207));
#348=DIRECTION('',(0.0,0.0,-1.0));
#349=DIRECTION('',(1.0,0.0,0.0));
#350=AXIS2_PLACEMENT_3D('',#347,#348,#349);
#351=CIRCLE('',#350,4.0);
#352=EDGE_CURVE('',#192,#175,#351,.T.);
#353=ORIENTED_EDGE('',*,*,#352,.F.);
#354=ORIENTED_EDGE('',*,*,#197,.F.);
#355=CARTESIAN_POINT('',(-206.142176489530780,-151.942271033851310,54.089200031825207));
#356=DIRECTION('',(0.0,0.0,1.0));
#357=DIRECTION('',(1.0,0.0,0.0));
#358=AXIS2_PLACEMENT_3D('',#355,#356,#357);
#359=CIRCLE('',#358,4.0);
#360=EDGE_CURVE('',#173,#183,#359,.T.);
#361=ORIENTED_EDGE('',*,*,#360,.F.);
#362=EDGE_LOOP('',(#346,#353,#354,#361));
#363=FACE_OUTER_BOUND('',#362,.T.);
#364=ADVANCED_FACE('',(#363),#345,.F.);
#365=CARTESIAN_POINT('',(-206.142176489530750,-191.942271033851340,174.089200031825210));
#366=DIRECTION('',(3.061567E-016,-1.836970E-016,1.0));
#367=DIRECTION('',(1.0,0.0,0.0));
#368=AXIS2_PLACEMENT_3D('',#365,#366,#367);
#369=CYLINDRICAL_SURFACE('',#368,4.0);
#370=ORIENTED_EDGE('',*,*,#138,.T.);
#371=CARTESIAN_POINT('',(-206.142176489530780,-191.942271033851310,56.589200031825193));
#372=DIRECTION('',(0.0,0.0,-1.0));
#373=DIRECTION('',(1.0,0.0,0.0));
#374=AXIS2_PLACEMENT_3D('',#371,#372,#373);
#375=CIRCLE('',#374,4.0);
#376=EDGE_CURVE('',#150,#133,#375,.T.);
#377=ORIENTED_EDGE('',*,*,#376,.F.);
#378=ORIENTED_EDGE('',*,*,#155,.F.);
#379=CARTESIAN_POINT('',(-206.142176489530810,-191.942271033851310,54.089200031825193));
#380=DIRECTION('',(0.0,0.0,1.0));
#381=DIRECTION('',(1.0,0.0,0.0));
#382=AXIS2_PLACEMENT_3D('',#379,#380,#381);
#383=CIRCLE('',#382,4.0);
#384=EDGE_CURVE('',#131,#141,#383,.T.);
#385=ORIENTED_EDGE('',*,*,#384,.F.);
#386=EDGE_LOOP('',(#370,#377,#378,#385));
#387=FACE_OUTER_BOUND('',#386,.T.);
#388=ADVANCED_FACE('',(#387),#369,.F.);
#389=CARTESIAN_POINT('',(-223.642176489530780,-209.442271033851310,131.589200031825210));
#390=DIRECTION('',(1.0,0.0,0.0));
#391=DIRECTION('',(0.0,0.0,1.0));
#392=AXIS2_PLACEMENT_3D('',#389,#390,#391);
#393=PLANE('',#392);
#394=CARTESIAN_POINT('',(-223.642176489530810,-209.442271033851310,56.589200031825200));
#395=VERTEX_POINT('',#394);
#396=CARTESIAN_POINT('',(-223.642176489530750,-134.442271033851310,131.589200031825210));
#397=VERTEX_POINT('',#396);
#398=CARTESIAN_POINT('',(-223.642176489530810,-209.442271033851310,56.589200031825200));
#399=DIRECTION('',(5.359249E-016,0.707106781186547,0.707106781186548));
#400=VECTOR('',#399,106.066017177982130);
#401=LINE('',#398,#400);
#402=EDGE_CURVE('',#395,#397,#401,.T.);
#403=ORIENTED_EDGE('',*,*,#402,.F.);
#404=CARTESIAN_POINT('',(-223.642176489530780,-134.442271033851310,56.589200031825214));
#405=VERTEX_POINT('',#404);
#406=CARTESIAN_POINT('',(-223.642176489530810,-209.442271033851310,56.589200031825200));
#407=DIRECTION('',(0.0,1.0,0.0));
#408=VECTOR('',#407,75.0);
#409=LINE('',#406,#408);
#410=EDGE_CURVE('',#395,#405,#409,.T.);
#411=ORIENTED_EDGE('',*,*,#410,.T.);
#412=CARTESIAN_POINT('',(-223.642176489530780,-134.442271033851310,56.589200031825214));
#413=DIRECTION('',(0.0,0.0,1.0));
#414=VECTOR('',#413,75.0);
#415=LINE('',#412,#414);
#416=EDGE_CURVE('',#405,#397,#415,.T.);
#417=ORIENTED_EDGE('',*,*,#416,.T.);
#418=EDGE_LOOP('',(#403,#411,#417));
#419=FACE_OUTER_BOUND('',#418,.T.);
#420=ADVANCED_FACE('',(#419),#393,.T.);
#421=CARTESIAN_POINT('',(-188.642176489530810,-209.442271033851310,56.589200031825186));
#422=DIRECTION('',(0.0,0.0,-1.0));
#423=DIRECTION('',(1.0,0.0,0.0));
#424=AXIS2_PLACEMENT_3D('',#421,#422,#423);
#425=PLANE('',#424);
#426=ORIENTED_EDGE('',*,*,#410,.F.);
#427=CARTESIAN_POINT('',(-188.642176489530810,-209.442271033851310,56.589200031825186));
#428=VERTEX_POINT('',#427);
#429=CARTESIAN_POINT('',(-188.642176489530810,-209.442271033851310,56.589200031825186));
#430=DIRECTION('',(-1.0,0.0,0.0));
#431=VECTOR('',#430,35.0);
#432=LINE('',#429,#431);
#433=EDGE_CURVE('',#428,#395,#432,.T.);
#434=ORIENTED_EDGE('',*,*,#433,.F.);
#435=CARTESIAN_POINT('',(-188.642176489530780,-134.442271033851310,56.589200031825200));
#436=VERTEX_POINT('',#435);
#437=CARTESIAN_POINT('',(-188.642176489530810,-209.442271033851310,56.589200031825186));
#438=DIRECTION('',(0.0,1.0,0.0));
#439=VECTOR('',#438,75.0);
#440=LINE('',#437,#439);
#441=EDGE_CURVE('',#428,#436,#440,.T.);
#442=ORIENTED_EDGE('',*,*,#441,.T.);
#443=CARTESIAN_POINT('',(-188.642176489530780,-134.442271033851310,56.589200031825200));
#444=DIRECTION('',(-1.0,0.0,0.0));
#445=VECTOR('',#444,35.0);
#446=LINE('',#443,#445);
#447=EDGE_CURVE('',#436,#405,#446,.T.);
#448=ORIENTED_EDGE('',*,*,#447,.T.);
#449=EDGE_LOOP('',(#426,#434,#442,#448));
#450=FACE_OUTER_BOUND('',#449,.T.);
#451=ORIENTED_EDGE('',*,*,#352,.T.);
#452=ORIENTED_EDGE('',*,*,#204,.T.);
#453=EDGE_LOOP('',(#451,#452));
#454=FACE_BOUND('',#453,.T.);
#455=ORIENTED_EDGE('',*,*,#376,.T.);
#456=ORIENTED_EDGE('',*,*,#162,.T.);
#457=EDGE_LOOP('',(#455,#456));
#458=FACE_BOUND('',#457,.T.);
#459=ADVANCED_FACE('',(#450,#454,#458),#425,.F.);
#460=CARTESIAN_POINT('',(-188.642176489530780,-134.442271033851310,56.589200031825200));
#461=DIRECTION('',(0.0,1.0,0.0));
#462=DIRECTION('',(1.0,0.0,0.0));
#463=AXIS2_PLACEMENT_3D('',#460,#461,#462);
#464=PLANE('',#463);
#465=ORIENTED_EDGE('',*,*,#416,.F.);
#466=ORIENTED_EDGE('',*,*,#447,.F.);
#467=CARTESIAN_POINT('',(-188.642176489530750,-134.442271033851310,131.589200031825210));
#468=VERTEX_POINT('',#467);
#469=CARTESIAN_POINT('',(-188.642176489530780,-134.442271033851310,56.589200031825200));
#470=DIRECTION('',(0.0,0.0,1.0));
#471=VECTOR('',#470,75.000000000000014);
#472=LINE('',#469,#471);
#473=EDGE_CURVE('',#436,#468,#472,.T.);
#474=ORIENTED_EDGE('',*,*,#473,.T.);
#475=CARTESIAN_POINT('',(-223.642176489530750,-134.442271033851310,131.589200031825210));
#476=DIRECTION('',(1.0,0.0,0.0));
#477=VECTOR('',#476,35.0);
#478=LINE('',#475,#477);
#479=EDGE_CURVE('',#397,#468,#478,.T.);
#480=ORIENTED_EDGE('',*,*,#479,.F.);
#481=EDGE_LOOP('',(#465,#466,#474,#480));
#482=FACE_OUTER_BOUND('',#481,.T.);
#483=ORIENTED_EDGE('',*,*,#304,.T.);
#484=ORIENTED_EDGE('',*,*,#288,.T.);
#485=EDGE_LOOP('',(#483,#484));
#486=FACE_BOUND('',#485,.T.);
#487=ORIENTED_EDGE('',*,*,#328,.T.);
#488=ORIENTED_EDGE('',*,*,#246,.T.);
#489=EDGE_LOOP('',(#487,#488));
#490=FACE_BOUND('',#489,.T.);
#491=ADVANCED_FACE('',(#482,#486,#490),#464,.F.);
#492=CARTESIAN_POINT('',(-188.642176489530780,-171.942271033851310,94.089200031825200));
#493=DIRECTION('',(-1.0,0.0,0.0));
#494=DIRECTION('',(0.0,0.0,-1.0));
#495=AXIS2_PLACEMENT_3D('',#492,#493,#494);
#496=PLANE('',#495);
#497=CARTESIAN_POINT('',(-188.642176489530750,-134.442271033851310,131.589200031825210));
#498=DIRECTION('',(-5.359249E-016,-0.707106781186547,-0.707106781186548));
#499=VECTOR('',#498,106.066017177982150);
#500=LINE('',#497,#499);
#501=EDGE_CURVE('',#468,#428,#500,.T.);
#502=ORIENTED_EDGE('',*,*,#501,.F.);
#503=ORIENTED_EDGE('',*,*,#473,.F.);
#504=ORIENTED_EDGE('',*,*,#441,.F.);
#505=EDGE_LOOP('',(#502,#503,#504));
#506=FACE_OUTER_BOUND('',#505,.T.);
#507=ADVANCED_FACE('',(#506),#496,.T.);
#508=CARTESIAN_POINT('',(-186.142176489530810,-211.942271033851310,54.089200031825186));
#509=DIRECTION('',(0.0,0.0,-1.0));
#510=DIRECTION('',(1.0,0.0,0.0));
#511=AXIS2_PLACEMENT_3D('',#508,#509,#510);
#512=PLANE('',#511);
#513=CARTESIAN_POINT('',(-226.142176489530810,-211.942271033851310,54.089200031825200));
#514=VERTEX_POINT('',#513);
#515=CARTESIAN_POINT('',(-226.142176489530780,-131.942271033851310,54.089200031825214));
#516=VERTEX_POINT('',#515);
#517=CARTESIAN_POINT('',(-226.142176489530810,-211.942271033851310,54.089200031825200));
#518=DIRECTION('',(0.0,1.0,0.0));
#519=VECTOR('',#518,80.0);
#520=LINE('',#517,#519);
#521=EDGE_CURVE('',#514,#516,#520,.T.);
#522=ORIENTED_EDGE('',*,*,#521,.T.);
#523=CARTESIAN_POINT('',(-186.142176489530780,-131.942271033851310,54.089200031825200));
#524=VERTEX_POINT('',#523);
#525=CARTESIAN_POINT('',(-186.142176489530780,-131.942271033851310,54.089200031825200));
#526=DIRECTION('',(-1.0,0.0,0.0));
#527=VECTOR('',#526,40.0);
#528=LINE('',#525,#527);
#529=EDGE_CURVE('',#524,#516,#528,.T.);
#530=ORIENTED_EDGE('',*,*,#529,.F.);
#531=CARTESIAN_POINT('',(-186.142176489530810,-211.942271033851310,54.089200031825186));
#532=VERTEX_POINT('',#531);
#533=CARTESIAN_POINT('',(-186.142176489530780,-131.942271033851310,54.089200031825200));
#534=DIRECTION('',(0.0,-1.0,0.0));
#535=VECTOR('',#534,80.0);
#536=LINE('',#533,#535);
#537=EDGE_CURVE('',#524,#532,#536,.T.);
#538=ORIENTED_EDGE('',*,*,#537,.T.);
#539=CARTESIAN_POINT('',(-186.142176489530810,-211.942271033851310,54.089200031825186));
#540=DIRECTION('',(-1.0,0.0,0.0));
#541=VECTOR('',#540,40.0);
#542=LINE('',#539,#541);
#543=EDGE_CURVE('',#532,#514,#542,.T.);
#544=ORIENTED_EDGE('',*,*,#543,.T.);
#545=EDGE_LOOP('',(#522,#530,#538,#544));
#546=FACE_OUTER_BOUND('',#545,.T.);
#547=ORIENTED_EDGE('',*,*,#360,.T.);
#548=ORIENTED_EDGE('',*,*,#189,.T.);
#549=EDGE_LOOP('',(#547,#548));
#550=FACE_BOUND('',#549,.T.);
#551=ORIENTED_EDGE('',*,*,#384,.T.);
#552=ORIENTED_EDGE('',*,*,#147,.T.);
#553=EDGE_LOOP('',(#551,#552));
#554=FACE_BOUND('',#553,.T.);
#555=ADVANCED_FACE('',(#546,#550,#554),#512,.T.);
#556=CARTESIAN_POINT('',(-186.142176489530780,-131.942271033851310,54.089200031825200));
#557=DIRECTION('',(0.0,1.0,0.0));
#558=DIRECTION('',(1.0,0.0,0.0));
#559=AXIS2_PLACEMENT_3D('',#556,#557,#558);
#560=PLANE('',#559);
#561=CARTESIAN_POINT('',(-226.142176489530750,-131.942271033851310,134.089200031825210));
#562=VERTEX_POINT('',#561);
#563=CARTESIAN_POINT('',(-226.142176489530780,-131.942271033851310,54.089200031825214));
#564=DIRECTION('',(0.0,0.0,1.0));
#565=VECTOR('',#564,80.0);
#566=LINE('',#563,#565);
#567=EDGE_CURVE('',#516,#562,#566,.T.);
#568=ORIENTED_EDGE('',*,*,#567,.T.);
#569=CARTESIAN_POINT('',(-186.142176489530750,-131.942271033851310,134.089200031825210));
#570=VERTEX_POINT('',#569);
#571=CARTESIAN_POINT('',(-186.142176489530750,-131.942271033851310,134.089200031825210));
#572=DIRECTION('',(-1.0,0.0,0.0));
#573=VECTOR('',#572,40.0);
#574=LINE('',#571,#573);
#575=EDGE_CURVE('',#570,#562,#574,.T.);
#576=ORIENTED_EDGE('',*,*,#575,.F.);
#577=CARTESIAN_POINT('',(-186.142176489530750,-131.942271033851310,134.089200031825210));
#578=DIRECTION('',(0.0,0.0,-1.0));
#579=VECTOR('',#578,80.000000000000014);
#580=LINE('',#577,#579);
#581=EDGE_CURVE('',#570,#524,#580,.T.);
#582=ORIENTED_EDGE('',*,*,#581,.T.);
#583=ORIENTED_EDGE('',*,*,#529,.T.);
#584=EDGE_LOOP('',(#568,#576,#582,#583));
#585=FACE_OUTER_BOUND('',#584,.T.);
#586=ORIENTED_EDGE('',*,*,#312,.T.);
#587=ORIENTED_EDGE('',*,*,#273,.T.);
#588=EDGE_LOOP('',(#586,#587));
#589=FACE_BOUND('',#588,.T.);
#590=ORIENTED_EDGE('',*,*,#336,.T.);
#591=ORIENTED_EDGE('',*,*,#231,.T.);
#592=EDGE_LOOP('',(#590,#591));
#593=FACE_BOUND('',#592,.T.);
#594=ADVANCED_FACE('',(#585,#589,#593),#560,.T.);
#595=CARTESIAN_POINT('',(-186.142176489530750,-131.942271033851310,134.089200031825210));
#596=DIRECTION('',(1.298927E-016,-0.707106781186548,0.707106781186547));
#597=DIRECTION('',(-1.0,0.0,0.0));
#598=AXIS2_PLACEMENT_3D('',#595,#596,#597);
#599=PLANE('',#598);
#600=CARTESIAN_POINT('',(-226.142176489530750,-131.942271033851310,134.089200031825210));
#601=DIRECTION('',(-5.024296E-016,-0.707106781186547,-0.707106781186548));
#602=VECTOR('',#601,113.137084989847620);
#603=LINE('',#600,#602);
#604=EDGE_CURVE('',#562,#514,#603,.T.);
#605=ORIENTED_EDGE('',*,*,#604,.T.);
#606=ORIENTED_EDGE('',*,*,#543,.F.);
#607=CARTESIAN_POINT('',(-186.142176489530810,-211.942271033851310,54.089200031825186));
#608=DIRECTION('',(5.024296E-016,0.707106781186547,0.707106781186548));
#609=VECTOR('',#608,113.137084989847620);
#610=LINE('',#607,#609);
#611=EDGE_CURVE('',#532,#570,#610,.T.);
#612=ORIENTED_EDGE('',*,*,#611,.T.);
#613=ORIENTED_EDGE('',*,*,#575,.T.);
#614=EDGE_LOOP('',(#605,#606,#612,#613));
#615=FACE_OUTER_BOUND('',#614,.T.);
#616=ORIENTED_EDGE('',*,*,#479,.T.);
#617=ORIENTED_EDGE('',*,*,#501,.T.);
#618=ORIENTED_EDGE('',*,*,#433,.T.);
#619=ORIENTED_EDGE('',*,*,#402,.T.);
#620=EDGE_LOOP('',(#616,#617,#618,#619));
#621=FACE_BOUND('',#620,.T.);
#622=ADVANCED_FACE('',(#615,#621),#599,.T.);
#623=CARTESIAN_POINT('',(-186.142176489530780,-158.608937700517830,80.755866698491886));
#624=DIRECTION('',(-1.0,0.0,0.0));
#625=DIRECTION('',(0.0,0.0,-1.0));
#626=AXIS2_PLACEMENT_3D('',#623,#624,#625);
#627=PLANE('',#626);
#628=ORIENTED_EDGE('',*,*,#611,.F.);
#629=ORIENTED_EDGE('',*,*,#537,.F.);
#630=ORIENTED_EDGE('',*,*,#581,.F.);
#631=EDGE_LOOP('',(#628,#629,#630));
#632=FACE_OUTER_BOUND('',#631,.T.);
#633=ADVANCED_FACE('',(#632),#627,.F.);
#634=CARTESIAN_POINT('',(-226.142176489530810,-211.942271033851310,54.089200031825200));
#635=DIRECTION('',(1.0,0.0,0.0));
#636=DIRECTION('',(0.0,0.0,1.0));
#637=AXIS2_PLACEMENT_3D('',#634,#635,#636);
#638=PLANE('',#637);
#639=ORIENTED_EDGE('',*,*,#521,.F.);
#640=ORIENTED_EDGE('',*,*,#604,.F.);
#641=ORIENTED_EDGE('',*,*,#567,.F.);
#642=EDGE_LOOP('',(#639,#640,#641));
#643=FACE_OUTER_BOUND('',#642,.T.);
#644=ADVANCED_FACE('',(#643),#638,.F.);
#645=CLOSED_SHELL('',(#166,#208,#250,#292,#316,#340,#364,#388,#420,#459,#491,#507,#555,#594,#622,#633,#644));
#646=MANIFOLD_SOLID_BREP('279A',#645);
#647=ADVANCED_BREP_SHAPE_REPRESENTATION('ABSR1',(#646),#28);
#648=SHAPE_REPRESENTATION_RELATIONSHIP('SRRPL1',' ',#647,#122);
ENDSEC;
END-ISO-10303-21;
