ISO-10303-21;
HEADER;
/* Generated by software containing ST-Developer
 * from STEP Tools, Inc. (www.steptools.com) 
 */

FILE_DESCRIPTION(
/* description */ ('Trapezteller 60 mit Anti-Slip-Platte'),
/* implementation_level */ '2;1');

FILE_NAME(
/* name */ 
'T:\\Produktinformationen\\MT\\I40\\3D-Files I40\\Trapezteller f\X\FCr
 feste Stellf\X\FC\X\DFe\\203600501 Trapezteller 60 mit Anti-Slip-Plat
te.stp',
/* time_stamp */ '2020-01-28T09:55:22+01:00',
/* author */ ('wheldmann'),
/* organization */ (''),
/* preprocessor_version */ 'ST-DEVELOPER v17.2',
/* originating_system */ 'Autodesk Inventor 2019',
/* authorisation */ ' ');

FILE_SCHEMA (('AUTOMOTIVE_DESIGN { 1 0 10303 214 3 1 1 }'));
ENDSEC;

DATA;
#10=MECHANICAL_DESIGN_GEOMETRIC_PRESENTATION_REPRESENTATION('',(#13),#566);
#11=SHAPE_REPRESENTATION_RELATIONSHIP('SRR','None',#573,#12);
#12=ADVANCED_BREP_SHAPE_REPRESENTATION('',(#14),#565);
#13=STYLED_ITEM('',(#582),#14);
#14=MANIFOLD_SOLID_BREP('Volumenk\X\F6rper2',#291);
#15=SPHERICAL_SURFACE('',#341,20.);
#16=CONICAL_SURFACE('',#327,9.7949669231,0.1745329252);
#17=CONICAL_SURFACE('',#346,6.5073474701,0.0872664626);
#18=CONICAL_SURFACE('',#349,7.04,1.2194009804);
#19=CONICAL_SURFACE('',#353,29.3530859635,0.034906585);
#20=CONICAL_SURFACE('',#360,16.9057864376,0.7853981634);
#21=FACE_BOUND('',#65,.T.);
#22=FACE_BOUND('',#69,.T.);
#23=FACE_BOUND('',#75,.T.);
#24=PLANE('',#320);
#25=PLANE('',#321);
#26=PLANE('',#332);
#27=PLANE('',#350);
#28=PLANE('',#361);
#29=LINE('',#488,#36);
#30=LINE('',#500,#37);
#31=LINE('',#508,#38);
#32=LINE('',#537,#39);
#33=LINE('',#542,#40);
#34=LINE('',#550,#41);
#35=LINE('',#561,#42);
#36=VECTOR('',#380,24.5);
#37=VECTOR('',#395,25.);
#38=VECTOR('',#404,9.7949669231);
#39=VECTOR('',#439,6.5073474701);
#40=VECTOR('',#446,7.04);
#41=VECTOR('',#455,29.3530859635);
#42=VECTOR('',#470,16.9057864376);
#43=CYLINDRICAL_SURFACE('',#317,24.5);
#44=CYLINDRICAL_SURFACE('',#324,25.);
#45=FACE_OUTER_BOUND('',#61,.T.);
#46=FACE_OUTER_BOUND('',#62,.T.);
#47=FACE_OUTER_BOUND('',#63,.T.);
#48=FACE_OUTER_BOUND('',#64,.T.);
#49=FACE_OUTER_BOUND('',#66,.T.);
#50=FACE_OUTER_BOUND('',#67,.T.);
#51=FACE_OUTER_BOUND('',#68,.T.);
#52=FACE_OUTER_BOUND('',#70,.T.);
#53=FACE_OUTER_BOUND('',#71,.T.);
#54=FACE_OUTER_BOUND('',#72,.T.);
#55=FACE_OUTER_BOUND('',#73,.T.);
#56=FACE_OUTER_BOUND('',#74,.T.);
#57=FACE_OUTER_BOUND('',#76,.T.);
#58=FACE_OUTER_BOUND('',#77,.T.);
#59=FACE_OUTER_BOUND('',#78,.T.);
#60=FACE_OUTER_BOUND('',#79,.T.);
#61=EDGE_LOOP('',(#188,#189,#190,#191,#192,#193));
#62=EDGE_LOOP('',(#194,#195,#196,#197,#198,#199));
#63=EDGE_LOOP('',(#200,#201));
#64=EDGE_LOOP('',(#202,#203));
#65=EDGE_LOOP('',(#204,#205));
#66=EDGE_LOOP('',(#206,#207,#208,#209,#210,#211));
#67=EDGE_LOOP('',(#212,#213,#214,#215,#216,#217));
#68=EDGE_LOOP('',(#218,#219));
#69=EDGE_LOOP('',(#220,#221));
#70=EDGE_LOOP('',(#222,#223,#224,#225,#226,#227));
#71=EDGE_LOOP('',(#228,#229,#230,#231,#232,#233,#234));
#72=EDGE_LOOP('',(#235,#236,#237,#238,#239,#240,#241));
#73=EDGE_LOOP('',(#242,#243,#244,#245,#246,#247));
#74=EDGE_LOOP('',(#248,#249));
#75=EDGE_LOOP('',(#250,#251));
#76=EDGE_LOOP('',(#252,#253,#254,#255,#256,#257));
#77=EDGE_LOOP('',(#258,#259,#260,#261,#262,#263));
#78=EDGE_LOOP('',(#264,#265,#266,#267,#268,#269));
#79=EDGE_LOOP('',(#270,#271));
#80=CIRCLE('',#312,23.5);
#81=CIRCLE('',#313,1.);
#82=CIRCLE('',#314,24.5);
#83=CIRCLE('',#315,24.5);
#84=CIRCLE('',#316,23.5);
#85=CIRCLE('',#318,24.5);
#86=CIRCLE('',#319,24.5);
#87=CIRCLE('',#322,25.);
#88=CIRCLE('',#323,25.);
#89=CIRCLE('',#325,25.);
#90=CIRCLE('',#326,25.);
#91=CIRCLE('',#328,9.7949669231);
#92=CIRCLE('',#329,9.7949669231);
#93=CIRCLE('',#330,11.56);
#94=CIRCLE('',#331,11.56);
#95=CIRCLE('',#333,15.4915728753);
#96=CIRCLE('',#334,15.4915728753);
#97=CIRCLE('',#335,11.3026545555);
#98=CIRCLE('',#336,11.3026545555);
#99=CIRCLE('',#338,16.9057864376);
#100=CIRCLE('',#339,16.9057864376);
#101=CIRCLE('',#340,2.);
#102=CIRCLE('',#342,20.);
#103=CIRCLE('',#343,6.5073474701);
#104=CIRCLE('',#344,6.5073474701);
#105=CIRCLE('',#345,6.5073474701);
#106=CIRCLE('',#347,7.04);
#107=CIRCLE('',#348,7.04);
#108=CIRCLE('',#351,29.5);
#109=CIRCLE('',#352,29.5);
#110=CIRCLE('',#354,29.3530859635);
#111=CIRCLE('',#355,29.3530859635);
#112=CIRCLE('',#357,2.);
#113=CIRCLE('',#358,28.7685178719);
#114=CIRCLE('',#359,28.7685178719);
#115=VERTEX_POINT('',#475);
#116=VERTEX_POINT('',#476);
#117=VERTEX_POINT('',#478);
#118=VERTEX_POINT('',#480);
#119=VERTEX_POINT('',#485);
#120=VERTEX_POINT('',#486);
#121=VERTEX_POINT('',#492);
#122=VERTEX_POINT('',#493);
#123=VERTEX_POINT('',#497);
#124=VERTEX_POINT('',#498);
#125=VERTEX_POINT('',#503);
#126=VERTEX_POINT('',#504);
#127=VERTEX_POINT('',#507);
#128=VERTEX_POINT('',#509);
#129=VERTEX_POINT('',#513);
#130=VERTEX_POINT('',#514);
#131=VERTEX_POINT('',#517);
#132=VERTEX_POINT('',#518);
#133=VERTEX_POINT('',#522);
#134=VERTEX_POINT('',#523);
#135=VERTEX_POINT('',#528);
#136=VERTEX_POINT('',#530);
#137=VERTEX_POINT('',#532);
#138=VERTEX_POINT('',#536);
#139=VERTEX_POINT('',#538);
#140=VERTEX_POINT('',#544);
#141=VERTEX_POINT('',#545);
#142=VERTEX_POINT('',#549);
#143=VERTEX_POINT('',#551);
#144=VERTEX_POINT('',#555);
#145=VERTEX_POINT('',#557);
#146=EDGE_CURVE('',#115,#116,#80,.T.);
#147=EDGE_CURVE('',#116,#117,#81,.T.);
#148=EDGE_CURVE('',#117,#118,#82,.T.);
#149=EDGE_CURVE('',#118,#117,#83,.T.);
#150=EDGE_CURVE('',#116,#115,#84,.T.);
#151=EDGE_CURVE('',#119,#120,#85,.T.);
#152=EDGE_CURVE('',#120,#117,#29,.T.);
#153=EDGE_CURVE('',#120,#119,#86,.T.);
#154=EDGE_CURVE('',#121,#122,#87,.T.);
#155=EDGE_CURVE('',#122,#121,#88,.T.);
#156=EDGE_CURVE('',#123,#124,#89,.T.);
#157=EDGE_CURVE('',#124,#122,#30,.T.);
#158=EDGE_CURVE('',#124,#123,#90,.T.);
#159=EDGE_CURVE('',#125,#126,#91,.T.);
#160=EDGE_CURVE('',#126,#125,#92,.T.);
#161=EDGE_CURVE('',#126,#127,#31,.T.);
#162=EDGE_CURVE('',#127,#128,#93,.T.);
#163=EDGE_CURVE('',#128,#127,#94,.T.);
#164=EDGE_CURVE('',#129,#130,#95,.T.);
#165=EDGE_CURVE('',#130,#129,#96,.T.);
#166=EDGE_CURVE('',#131,#132,#97,.T.);
#167=EDGE_CURVE('',#132,#131,#98,.T.);
#168=EDGE_CURVE('',#133,#134,#99,.T.);
#169=EDGE_CURVE('',#134,#133,#100,.T.);
#170=EDGE_CURVE('',#134,#130,#101,.T.);
#171=EDGE_CURVE('',#132,#135,#102,.T.);
#172=EDGE_CURVE('',#135,#136,#103,.T.);
#173=EDGE_CURVE('',#136,#137,#104,.T.);
#174=EDGE_CURVE('',#137,#135,#105,.T.);
#175=EDGE_CURVE('',#137,#138,#32,.T.);
#176=EDGE_CURVE('',#138,#139,#106,.T.);
#177=EDGE_CURVE('',#139,#138,#107,.T.);
#178=EDGE_CURVE('',#125,#139,#33,.T.);
#179=EDGE_CURVE('',#140,#141,#108,.T.);
#180=EDGE_CURVE('',#141,#140,#109,.T.);
#181=EDGE_CURVE('',#141,#142,#34,.T.);
#182=EDGE_CURVE('',#142,#143,#110,.T.);
#183=EDGE_CURVE('',#143,#142,#111,.T.);
#184=EDGE_CURVE('',#142,#144,#112,.T.);
#185=EDGE_CURVE('',#144,#145,#113,.T.);
#186=EDGE_CURVE('',#145,#144,#114,.T.);
#187=EDGE_CURVE('',#144,#134,#35,.T.);
#188=ORIENTED_EDGE('',*,*,#146,.T.);
#189=ORIENTED_EDGE('',*,*,#147,.T.);
#190=ORIENTED_EDGE('',*,*,#148,.T.);
#191=ORIENTED_EDGE('',*,*,#149,.T.);
#192=ORIENTED_EDGE('',*,*,#147,.F.);
#193=ORIENTED_EDGE('',*,*,#150,.T.);
#194=ORIENTED_EDGE('',*,*,#151,.T.);
#195=ORIENTED_EDGE('',*,*,#152,.T.);
#196=ORIENTED_EDGE('',*,*,#149,.F.);
#197=ORIENTED_EDGE('',*,*,#148,.F.);
#198=ORIENTED_EDGE('',*,*,#152,.F.);
#199=ORIENTED_EDGE('',*,*,#153,.T.);
#200=ORIENTED_EDGE('',*,*,#146,.F.);
#201=ORIENTED_EDGE('',*,*,#150,.F.);
#202=ORIENTED_EDGE('',*,*,#154,.T.);
#203=ORIENTED_EDGE('',*,*,#155,.T.);
#204=ORIENTED_EDGE('',*,*,#151,.F.);
#205=ORIENTED_EDGE('',*,*,#153,.F.);
#206=ORIENTED_EDGE('',*,*,#156,.T.);
#207=ORIENTED_EDGE('',*,*,#157,.T.);
#208=ORIENTED_EDGE('',*,*,#154,.F.);
#209=ORIENTED_EDGE('',*,*,#155,.F.);
#210=ORIENTED_EDGE('',*,*,#157,.F.);
#211=ORIENTED_EDGE('',*,*,#158,.T.);
#212=ORIENTED_EDGE('',*,*,#159,.F.);
#213=ORIENTED_EDGE('',*,*,#160,.F.);
#214=ORIENTED_EDGE('',*,*,#161,.T.);
#215=ORIENTED_EDGE('',*,*,#162,.T.);
#216=ORIENTED_EDGE('',*,*,#163,.T.);
#217=ORIENTED_EDGE('',*,*,#161,.F.);
#218=ORIENTED_EDGE('',*,*,#164,.F.);
#219=ORIENTED_EDGE('',*,*,#165,.F.);
#220=ORIENTED_EDGE('',*,*,#166,.T.);
#221=ORIENTED_EDGE('',*,*,#167,.T.);
#222=ORIENTED_EDGE('',*,*,#168,.F.);
#223=ORIENTED_EDGE('',*,*,#169,.F.);
#224=ORIENTED_EDGE('',*,*,#170,.T.);
#225=ORIENTED_EDGE('',*,*,#165,.T.);
#226=ORIENTED_EDGE('',*,*,#164,.T.);
#227=ORIENTED_EDGE('',*,*,#170,.F.);
#228=ORIENTED_EDGE('',*,*,#166,.F.);
#229=ORIENTED_EDGE('',*,*,#167,.F.);
#230=ORIENTED_EDGE('',*,*,#171,.T.);
#231=ORIENTED_EDGE('',*,*,#172,.T.);
#232=ORIENTED_EDGE('',*,*,#173,.T.);
#233=ORIENTED_EDGE('',*,*,#174,.T.);
#234=ORIENTED_EDGE('',*,*,#171,.F.);
#235=ORIENTED_EDGE('',*,*,#173,.F.);
#236=ORIENTED_EDGE('',*,*,#172,.F.);
#237=ORIENTED_EDGE('',*,*,#174,.F.);
#238=ORIENTED_EDGE('',*,*,#175,.T.);
#239=ORIENTED_EDGE('',*,*,#176,.T.);
#240=ORIENTED_EDGE('',*,*,#177,.T.);
#241=ORIENTED_EDGE('',*,*,#175,.F.);
#242=ORIENTED_EDGE('',*,*,#159,.T.);
#243=ORIENTED_EDGE('',*,*,#160,.T.);
#244=ORIENTED_EDGE('',*,*,#178,.T.);
#245=ORIENTED_EDGE('',*,*,#176,.F.);
#246=ORIENTED_EDGE('',*,*,#177,.F.);
#247=ORIENTED_EDGE('',*,*,#178,.F.);
#248=ORIENTED_EDGE('',*,*,#179,.T.);
#249=ORIENTED_EDGE('',*,*,#180,.T.);
#250=ORIENTED_EDGE('',*,*,#156,.F.);
#251=ORIENTED_EDGE('',*,*,#158,.F.);
#252=ORIENTED_EDGE('',*,*,#179,.F.);
#253=ORIENTED_EDGE('',*,*,#180,.F.);
#254=ORIENTED_EDGE('',*,*,#181,.T.);
#255=ORIENTED_EDGE('',*,*,#182,.T.);
#256=ORIENTED_EDGE('',*,*,#183,.T.);
#257=ORIENTED_EDGE('',*,*,#181,.F.);
#258=ORIENTED_EDGE('',*,*,#183,.F.);
#259=ORIENTED_EDGE('',*,*,#182,.F.);
#260=ORIENTED_EDGE('',*,*,#184,.T.);
#261=ORIENTED_EDGE('',*,*,#185,.T.);
#262=ORIENTED_EDGE('',*,*,#186,.T.);
#263=ORIENTED_EDGE('',*,*,#184,.F.);
#264=ORIENTED_EDGE('',*,*,#186,.F.);
#265=ORIENTED_EDGE('',*,*,#185,.F.);
#266=ORIENTED_EDGE('',*,*,#187,.T.);
#267=ORIENTED_EDGE('',*,*,#169,.T.);
#268=ORIENTED_EDGE('',*,*,#168,.T.);
#269=ORIENTED_EDGE('',*,*,#187,.F.);
#270=ORIENTED_EDGE('',*,*,#163,.F.);
#271=ORIENTED_EDGE('',*,*,#162,.F.);
#272=TOROIDAL_SURFACE('',#311,23.5,1.);
#273=TOROIDAL_SURFACE('',#337,15.4915728753,2.);
#274=TOROIDAL_SURFACE('',#356,27.3543043095,2.);
#275=ADVANCED_FACE('',(#45),#272,.T.);
#276=ADVANCED_FACE('',(#46),#43,.T.);
#277=ADVANCED_FACE('',(#47),#24,.F.);
#278=ADVANCED_FACE('',(#48,#21),#25,.T.);
#279=ADVANCED_FACE('',(#49),#44,.F.);
#280=ADVANCED_FACE('',(#50),#16,.F.);
#281=ADVANCED_FACE('',(#51,#22),#26,.F.);
#282=ADVANCED_FACE('',(#52),#273,.T.);
#283=ADVANCED_FACE('',(#53),#15,.F.);
#284=ADVANCED_FACE('',(#54),#17,.F.);
#285=ADVANCED_FACE('',(#55),#18,.T.);
#286=ADVANCED_FACE('',(#56,#23),#27,.F.);
#287=ADVANCED_FACE('',(#57),#19,.T.);
#288=ADVANCED_FACE('',(#58),#274,.T.);
#289=ADVANCED_FACE('',(#59),#20,.T.);
#290=ADVANCED_FACE('',(#60),#28,.F.);
#291=CLOSED_SHELL('',(#275,#276,#277,#278,#279,#280,#281,#282,#283,#284,
#285,#286,#287,#288,#289,#290));
#292=DERIVED_UNIT_ELEMENT(#294,1.);
#293=DERIVED_UNIT_ELEMENT(#568,3.);
#294=(
MASS_UNIT()
NAMED_UNIT(*)
SI_UNIT($,.GRAM.)
);
#295=DERIVED_UNIT((#292,#293));
#296=MEASURE_REPRESENTATION_ITEM('density measure',
POSITIVE_RATIO_MEASURE(1.),#295);
#297=PROPERTY_DEFINITION_REPRESENTATION(#302,#299);
#298=PROPERTY_DEFINITION_REPRESENTATION(#303,#300);
#299=REPRESENTATION('material name',(#301),#565);
#300=REPRESENTATION('density',(#296),#565);
#301=DESCRIPTIVE_REPRESENTATION_ITEM('Standard','Standard');
#302=PROPERTY_DEFINITION('material property','material name',#575);
#303=PROPERTY_DEFINITION('material property','density of part',#575);
#304=DATE_TIME_ROLE('creation_date');
#305=APPLIED_DATE_AND_TIME_ASSIGNMENT(#306,#304,(#575));
#306=DATE_AND_TIME(#307,#308);
#307=CALENDAR_DATE(2020,28,1);
#308=LOCAL_TIME(9,26,41.,#309);
#309=COORDINATED_UNIVERSAL_TIME_OFFSET(0,0,.BEHIND.);
#310=AXIS2_PLACEMENT_3D('placement',#473,#362,#363);
#311=AXIS2_PLACEMENT_3D('',#474,#364,#365);
#312=AXIS2_PLACEMENT_3D('',#477,#366,#367);
#313=AXIS2_PLACEMENT_3D('',#479,#368,#369);
#314=AXIS2_PLACEMENT_3D('',#481,#370,#371);
#315=AXIS2_PLACEMENT_3D('',#482,#372,#373);
#316=AXIS2_PLACEMENT_3D('',#483,#374,#375);
#317=AXIS2_PLACEMENT_3D('',#484,#376,#377);
#318=AXIS2_PLACEMENT_3D('',#487,#378,#379);
#319=AXIS2_PLACEMENT_3D('',#489,#381,#382);
#320=AXIS2_PLACEMENT_3D('',#490,#383,#384);
#321=AXIS2_PLACEMENT_3D('',#491,#385,#386);
#322=AXIS2_PLACEMENT_3D('',#494,#387,#388);
#323=AXIS2_PLACEMENT_3D('',#495,#389,#390);
#324=AXIS2_PLACEMENT_3D('',#496,#391,#392);
#325=AXIS2_PLACEMENT_3D('',#499,#393,#394);
#326=AXIS2_PLACEMENT_3D('',#501,#396,#397);
#327=AXIS2_PLACEMENT_3D('',#502,#398,#399);
#328=AXIS2_PLACEMENT_3D('',#505,#400,#401);
#329=AXIS2_PLACEMENT_3D('',#506,#402,#403);
#330=AXIS2_PLACEMENT_3D('',#510,#405,#406);
#331=AXIS2_PLACEMENT_3D('',#511,#407,#408);
#332=AXIS2_PLACEMENT_3D('',#512,#409,#410);
#333=AXIS2_PLACEMENT_3D('',#515,#411,#412);
#334=AXIS2_PLACEMENT_3D('',#516,#413,#414);
#335=AXIS2_PLACEMENT_3D('',#519,#415,#416);
#336=AXIS2_PLACEMENT_3D('',#520,#417,#418);
#337=AXIS2_PLACEMENT_3D('',#521,#419,#420);
#338=AXIS2_PLACEMENT_3D('',#524,#421,#422);
#339=AXIS2_PLACEMENT_3D('',#525,#423,#424);
#340=AXIS2_PLACEMENT_3D('',#526,#425,#426);
#341=AXIS2_PLACEMENT_3D('',#527,#427,#428);
#342=AXIS2_PLACEMENT_3D('',#529,#429,#430);
#343=AXIS2_PLACEMENT_3D('',#531,#431,#432);
#344=AXIS2_PLACEMENT_3D('',#533,#433,#434);
#345=AXIS2_PLACEMENT_3D('',#534,#435,#436);
#346=AXIS2_PLACEMENT_3D('',#535,#437,#438);
#347=AXIS2_PLACEMENT_3D('',#539,#440,#441);
#348=AXIS2_PLACEMENT_3D('',#540,#442,#443);
#349=AXIS2_PLACEMENT_3D('',#541,#444,#445);
#350=AXIS2_PLACEMENT_3D('',#543,#447,#448);
#351=AXIS2_PLACEMENT_3D('',#546,#449,#450);
#352=AXIS2_PLACEMENT_3D('',#547,#451,#452);
#353=AXIS2_PLACEMENT_3D('',#548,#453,#454);
#354=AXIS2_PLACEMENT_3D('',#552,#456,#457);
#355=AXIS2_PLACEMENT_3D('',#553,#458,#459);
#356=AXIS2_PLACEMENT_3D('',#554,#460,#461);
#357=AXIS2_PLACEMENT_3D('',#556,#462,#463);
#358=AXIS2_PLACEMENT_3D('',#558,#464,#465);
#359=AXIS2_PLACEMENT_3D('',#559,#466,#467);
#360=AXIS2_PLACEMENT_3D('',#560,#468,#469);
#361=AXIS2_PLACEMENT_3D('',#562,#471,#472);
#362=DIRECTION('axis',(0.,0.,1.));
#363=DIRECTION('refdir',(1.,0.,0.));
#364=DIRECTION('center_axis',(0.,2.22044604925031E-16,-1.));
#365=DIRECTION('ref_axis',(0.,1.,2.22044604925031E-16));
#366=DIRECTION('center_axis',(0.,-2.22044604925031E-16,1.));
#367=DIRECTION('ref_axis',(1.22464679914735E-16,-1.,-2.22044604925031E-16));
#368=DIRECTION('center_axis',(-1.,1.22464679914735E-16,2.71926214689378E-32));
#369=DIRECTION('ref_axis',(-1.22464679914735E-16,-1.,-2.20911724287659E-16));
#370=DIRECTION('center_axis',(0.,2.22044604925031E-16,-1.));
#371=DIRECTION('ref_axis',(1.22464679914735E-16,-1.,-2.22044604925031E-16));
#372=DIRECTION('center_axis',(0.,2.22044604925031E-16,-1.));
#373=DIRECTION('ref_axis',(1.22464679914735E-16,-1.,-2.22044604925031E-16));
#374=DIRECTION('center_axis',(0.,-2.22044604925031E-16,1.));
#375=DIRECTION('ref_axis',(1.22464679914735E-16,-1.,-2.22044604925031E-16));
#376=DIRECTION('center_axis',(0.,-2.22044604925031E-16,1.));
#377=DIRECTION('ref_axis',(0.,1.,2.22044604925031E-16));
#378=DIRECTION('center_axis',(0.,2.22044604925031E-16,-1.));
#379=DIRECTION('ref_axis',(0.,1.,2.22044604925031E-16));
#380=DIRECTION('',(0.,2.22044604925031E-16,-1.));
#381=DIRECTION('center_axis',(0.,2.22044604925031E-16,-1.));
#382=DIRECTION('ref_axis',(0.,1.,2.22044604925031E-16));
#383=DIRECTION('center_axis',(0.,-2.22044604925031E-16,1.));
#384=DIRECTION('ref_axis',(0.,-1.,-2.22044604925031E-16));
#385=DIRECTION('center_axis',(0.,2.22044604925031E-16,-1.));
#386=DIRECTION('ref_axis',(0.,1.,2.22044604925031E-16));
#387=DIRECTION('center_axis',(0.,2.22044604925031E-16,-1.));
#388=DIRECTION('ref_axis',(0.,1.,2.22044604925031E-16));
#389=DIRECTION('center_axis',(0.,2.22044604925031E-16,-1.));
#390=DIRECTION('ref_axis',(0.,1.,2.22044604925031E-16));
#391=DIRECTION('center_axis',(0.,-2.22044604925031E-16,1.));
#392=DIRECTION('ref_axis',(0.,1.,2.22044604925031E-16));
#393=DIRECTION('center_axis',(0.,2.22044604925031E-16,-1.));
#394=DIRECTION('ref_axis',(0.,1.,2.22044604925031E-16));
#395=DIRECTION('',(0.,-2.22044604925031E-16,1.));
#396=DIRECTION('center_axis',(0.,2.22044604925031E-16,-1.));
#397=DIRECTION('ref_axis',(0.,1.,2.22044604925031E-16));
#398=DIRECTION('center_axis',(0.,2.22044604925031E-16,-1.));
#399=DIRECTION('ref_axis',(0.,1.,2.22044604925031E-16));
#400=DIRECTION('center_axis',(0.,2.22044604925031E-16,-1.));
#401=DIRECTION('ref_axis',(0.,1.,2.22044604925031E-16));
#402=DIRECTION('center_axis',(0.,2.22044604925031E-16,-1.));
#403=DIRECTION('ref_axis',(0.,1.,2.22044604925031E-16));
#404=DIRECTION('',(-2.12657684958261E-17,-0.173648177667489,-0.98480775301211));
#405=DIRECTION('center_axis',(0.,2.22044604925031E-16,-1.));
#406=DIRECTION('ref_axis',(0.,1.,2.22044604925031E-16));
#407=DIRECTION('center_axis',(0.,2.22044604925031E-16,-1.));
#408=DIRECTION('ref_axis',(0.,1.,2.22044604925031E-16));
#409=DIRECTION('center_axis',(0.,2.22044604925031E-16,-1.));
#410=DIRECTION('ref_axis',(0.,1.,2.22044604925031E-16));
#411=DIRECTION('center_axis',(0.,2.22044604925031E-16,-1.));
#412=DIRECTION('ref_axis',(0.,1.,2.22044604925031E-16));
#413=DIRECTION('center_axis',(0.,2.22044604925031E-16,-1.));
#414=DIRECTION('ref_axis',(0.,1.,2.22044604925031E-16));
#415=DIRECTION('center_axis',(0.,2.22044604925031E-16,-1.));
#416=DIRECTION('ref_axis',(0.,1.,2.22044604925031E-16));
#417=DIRECTION('center_axis',(0.,2.22044604925031E-16,-1.));
#418=DIRECTION('ref_axis',(0.,1.,2.22044604925031E-16));
#419=DIRECTION('center_axis',(0.,2.22044604925031E-16,-1.));
#420=DIRECTION('ref_axis',(0.,1.,2.03110017842782E-16));
#421=DIRECTION('center_axis',(0.,2.22044604925031E-16,-1.));
#422=DIRECTION('ref_axis',(0.,1.,2.22044604925031E-16));
#423=DIRECTION('center_axis',(0.,2.22044604925031E-16,-1.));
#424=DIRECTION('ref_axis',(0.,1.,2.22044604925031E-16));
#425=DIRECTION('center_axis',(-1.,1.22464679914735E-16,2.71926214689378E-32));
#426=DIRECTION('ref_axis',(-1.22464679914735E-16,-1.,-2.53887522303477E-16));
#427=DIRECTION('center_axis',(1.22464679914735E-16,2.22044604925031E-16,
-1.));
#428=DIRECTION('ref_axis',(1.,0.,0.));
#429=DIRECTION('center_axis',(-1.22464679914735E-16,-1.,-2.22044604925031E-16));
#430=DIRECTION('ref_axis',(-1.,1.22464679914735E-16,0.));
#431=DIRECTION('center_axis',(0.,2.22044604925031E-16,-1.));
#432=DIRECTION('ref_axis',(0.,1.,2.22044604925031E-16));
#433=DIRECTION('center_axis',(0.,2.22044604925031E-16,-1.));
#434=DIRECTION('ref_axis',(0.,1.,2.22044604925031E-16));
#435=DIRECTION('center_axis',(0.,2.22044604925031E-16,-1.));
#436=DIRECTION('ref_axis',(0.,1.,2.22044604925031E-16));
#437=DIRECTION('center_axis',(0.,2.22044604925031E-16,-1.));
#438=DIRECTION('ref_axis',(0.,1.,2.22044604925031E-16));
#439=DIRECTION('',(-1.06735001383576E-17,-0.0871557427479404,-0.996194698091721));
#440=DIRECTION('center_axis',(0.,2.22044604925031E-16,-1.));
#441=DIRECTION('ref_axis',(0.,1.,2.22044604925031E-16));
#442=DIRECTION('center_axis',(0.,2.22044604925031E-16,-1.));
#443=DIRECTION('ref_axis',(0.,1.,2.22044604925031E-16));
#444=DIRECTION('center_axis',(0.,-2.22044604925031E-16,1.));
#445=DIRECTION('ref_axis',(0.,-1.,-2.22044604925031E-16));
#446=DIRECTION('',(1.14981272027497E-16,-0.938893337307964,-0.344208223548936));
#447=DIRECTION('center_axis',(0.,-2.22044604925031E-16,1.));
#448=DIRECTION('ref_axis',(0.,-1.,-2.22044604925031E-16));
#449=DIRECTION('center_axis',(0.,2.22044604925031E-16,-1.));
#450=DIRECTION('ref_axis',(0.,1.,2.22044604925031E-16));
#451=DIRECTION('center_axis',(0.,2.22044604925031E-16,-1.));
#452=DIRECTION('ref_axis',(0.,1.,2.22044604925031E-16));
#453=DIRECTION('center_axis',(0.,2.22044604925031E-16,-1.));
#454=DIRECTION('ref_axis',(0.,1.,2.22044604925031E-16));
#455=DIRECTION('',(4.27395568797542E-18,0.0348994966626385,0.999390827020488));
#456=DIRECTION('center_axis',(0.,2.22044604925031E-16,-1.));
#457=DIRECTION('ref_axis',(0.,1.,2.22044604925031E-16));
#458=DIRECTION('center_axis',(0.,2.22044604925031E-16,-1.));
#459=DIRECTION('ref_axis',(0.,1.,2.22044604925031E-16));
#460=DIRECTION('center_axis',(0.,2.22044604925031E-16,-1.));
#461=DIRECTION('ref_axis',(0.,1.,2.11800248179916E-16));
#462=DIRECTION('center_axis',(-1.,1.22464679914735E-16,2.71926214689378E-32));
#463=DIRECTION('ref_axis',(-1.22464679914735E-16,-1.,-2.26928837335624E-16));
#464=DIRECTION('center_axis',(0.,2.22044604925031E-16,-1.));
#465=DIRECTION('ref_axis',(0.,1.,2.22044604925031E-16));
#466=DIRECTION('center_axis',(0.,2.22044604925031E-16,-1.));
#467=DIRECTION('ref_axis',(0.,1.,2.22044604925031E-16));
#468=DIRECTION('center_axis',(0.,2.22044604925031E-16,-1.));
#469=DIRECTION('ref_axis',(0.,1.,2.22044604925031E-16));
#470=DIRECTION('',(8.65956056237703E-17,0.707106781188352,0.707106781184743));
#471=DIRECTION('center_axis',(0.,2.22044604925031E-16,-1.));
#472=DIRECTION('ref_axis',(0.,1.,2.22044604925031E-16));
#473=CARTESIAN_POINT('',(0.,0.,0.));
#474=CARTESIAN_POINT('Origin',(0.,2.22044604925031E-16,-1.));
#475=CARTESIAN_POINT('',(-5.75583995599256E-15,23.5,-1.99999999999999));
#476=CARTESIAN_POINT('',(-2.87791997799628E-15,-23.5,-2.00000000000001));
#477=CARTESIAN_POINT('Origin',(0.,4.44089209850063E-16,-2.));
#478=CARTESIAN_POINT('',(-3.00038465791102E-15,-24.5,-1.00000000000001));
#479=CARTESIAN_POINT('Origin',(-2.87791997799628E-15,-23.5,-1.00000000000001));
#480=CARTESIAN_POINT('',(0.,24.5,-0.999999999999995));
#481=CARTESIAN_POINT('Origin',(0.,2.22044604925031E-16,-1.));
#482=CARTESIAN_POINT('Origin',(0.,2.22044604925031E-16,-1.));
#483=CARTESIAN_POINT('Origin',(0.,4.44089209850063E-16,-2.));
#484=CARTESIAN_POINT('Origin',(0.,4.44089209850063E-16,-2.));
#485=CARTESIAN_POINT('',(0.,24.5,5.00000000000001));
#486=CARTESIAN_POINT('',(3.00038465791102E-15,-24.5,4.99999999999999));
#487=CARTESIAN_POINT('Origin',(0.,-1.11022302462516E-15,5.));
#488=CARTESIAN_POINT('',(3.00038465791102E-15,-24.5,-2.00000000000001));
#489=CARTESIAN_POINT('Origin',(0.,-1.11022302462516E-15,5.));
#490=CARTESIAN_POINT('Origin',(24.5,4.44089209850063E-16,-2.));
#491=CARTESIAN_POINT('Origin',(14.74,-1.11022302462516E-15,5.));
#492=CARTESIAN_POINT('',(0.,25.,5.00000000000001));
#493=CARTESIAN_POINT('',(3.06161699786838E-15,-25.,4.99999999999999));
#494=CARTESIAN_POINT('Origin',(0.,-1.11022302462516E-15,5.));
#495=CARTESIAN_POINT('Origin',(0.,-1.11022302462516E-15,5.));
#496=CARTESIAN_POINT('Origin',(0.,0.,0.));
#497=CARTESIAN_POINT('',(0.,25.,5.55111512312578E-15));
#498=CARTESIAN_POINT('',(3.06161699786838E-15,-25.,-5.55111512312578E-15));
#499=CARTESIAN_POINT('Origin',(0.,0.,0.));
#500=CARTESIAN_POINT('',(3.06161699786838E-15,-25.,-5.55111512312578E-15));
#501=CARTESIAN_POINT('Origin',(0.,0.,0.));
#502=CARTESIAN_POINT('Origin',(0.,-2.33368879776208E-15,10.51));
#503=CARTESIAN_POINT('',(0.,9.79496692310827,10.51));
#504=CARTESIAN_POINT('',(-1.19953748901286E-15,-9.7949669231,10.51));
#505=CARTESIAN_POINT('Origin',(0.,-2.33368879776208E-15,10.51));
#506=CARTESIAN_POINT('Origin',(0.,-2.33368879776208E-15,10.51));
#507=CARTESIAN_POINT('',(-1.41569169981405E-15,-11.5599999999977,0.499999999999587));
#508=CARTESIAN_POINT('',(-1.19953748901286E-15,-9.7949669231,10.51));
#509=CARTESIAN_POINT('',(0.,11.56,0.500000000000005));
#510=CARTESIAN_POINT('Origin',(0.,-1.11022302462516E-16,0.500000000000002));
#511=CARTESIAN_POINT('Origin',(0.,-1.11022302462516E-16,0.500000000000002));
#512=CARTESIAN_POINT('Origin',(0.,-3.99680288865056E-15,18.));
#513=CARTESIAN_POINT('',(0.,15.4915728752538,18.));
#514=CARTESIAN_POINT('',(-1.89717051354941E-15,-15.4915728753,18.));
#515=CARTESIAN_POINT('Origin',(0.,-3.99680288865056E-15,18.));
#516=CARTESIAN_POINT('Origin',(0.,-3.99680288865056E-15,18.));
#517=CARTESIAN_POINT('',(0.,11.3026545554573,18.));
#518=CARTESIAN_POINT('',(-11.3026545555,-2.61262691632442E-15,18.));
#519=CARTESIAN_POINT('Origin',(0.,-3.99680288865056E-15,18.));
#520=CARTESIAN_POINT('Origin',(0.,-3.99680288865056E-15,18.));
#521=CARTESIAN_POINT('Origin',(0.,-3.5527136788005E-15,16.));
#522=CARTESIAN_POINT('',(0.,16.9057864376269,17.4142135623731));
#523=CARTESIAN_POINT('',(-2.07036172478756E-15,-16.9057864376,17.4142135623731));
#524=CARTESIAN_POINT('Origin',(0.,-3.86673217053726E-15,17.4142135623731));
#525=CARTESIAN_POINT('Origin',(0.,-3.86673217053726E-15,17.4142135623731));
#526=CARTESIAN_POINT('Origin',(-1.89717051354941E-15,-15.4915728753,16.));
#527=CARTESIAN_POINT('Origin',(1.21430643318376E-13,-7.66053886991353E-15,
34.4999999999998));
#528=CARTESIAN_POINT('',(-6.5073474701,-2.66436576088734E-15,15.588246276354));
#529=CARTESIAN_POINT('Origin',(1.21430643318376E-13,-7.66053886991353E-15,
34.4999999999998));
#530=CARTESIAN_POINT('',(0.,6.50734747006511,15.588246276354));
#531=CARTESIAN_POINT('Origin',(0.,-3.46128598590711E-15,15.588246276354));
#532=CARTESIAN_POINT('',(-7.96920225019759E-16,-6.5073474701,15.588246276354));
#533=CARTESIAN_POINT('Origin',(0.,-3.46128598590711E-15,15.588246276354));
#534=CARTESIAN_POINT('Origin',(0.,-3.46128598590711E-15,15.588246276354));
#535=CARTESIAN_POINT('Origin',(0.,-3.46128598590711E-15,15.588246276354));
#536=CARTESIAN_POINT('',(-8.62151346604189E-16,-7.04000000003636,9.50000000000318));
#537=CARTESIAN_POINT('',(-7.96920225019759E-16,-6.5073474701,15.588246276354));
#538=CARTESIAN_POINT('',(0.,7.04,9.5));
#539=CARTESIAN_POINT('Origin',(0.,-2.1094237467878E-15,9.5));
#540=CARTESIAN_POINT('Origin',(0.,-2.1094237467878E-15,9.5));
#541=CARTESIAN_POINT('Origin',(0.,-2.1094237467878E-15,9.5));
#542=CARTESIAN_POINT('',(-8.62151346599737E-16,7.04,9.5));
#543=CARTESIAN_POINT('Origin',(29.5,0.,0.));
#544=CARTESIAN_POINT('',(0.,29.5,6.55031584528842E-15));
#545=CARTESIAN_POINT('',(-3.61270805746046E-15,-29.4999999998021,-6.91724455492704E-12));
#546=CARTESIAN_POINT('Origin',(0.,0.,0.));
#547=CARTESIAN_POINT('Origin',(0.,0.,0.));
#548=CARTESIAN_POINT('Origin',(0.,-9.34156654068126E-16,4.20706755916688));
#549=CARTESIAN_POINT('',(-3.59471627702974E-15,-29.3530859635,4.20706755916687));
#550=CARTESIAN_POINT('',(-3.59471627702974E-15,-29.3530859635,4.20706755916687));
#551=CARTESIAN_POINT('',(0.,29.3530859635301,4.20706755916689));
#552=CARTESIAN_POINT('Origin',(0.,-9.34156654068126E-16,4.20706755916688));
#553=CARTESIAN_POINT('Origin',(0.,-9.34156654068126E-16,4.20706755916688));
#554=CARTESIAN_POINT('Origin',(0.,-9.1865816415335E-16,4.13726856576189));
#555=CARTESIAN_POINT('',(-3.52312733280358E-15,-28.7685178719,5.55148212813496));
#556=CARTESIAN_POINT('Origin',(-3.34993612155318E-15,-27.3543043095,4.13726856576188));
#557=CARTESIAN_POINT('',(0.,28.768517871865,5.55148212813498));
#558=CARTESIAN_POINT('Origin',(0.,-1.2326766558901E-15,5.55148212813497));
#559=CARTESIAN_POINT('Origin',(0.,-1.2326766558901E-15,5.55148212813497));
#560=CARTESIAN_POINT('Origin',(0.,-3.86673217053726E-15,17.4142135623731));
#561=CARTESIAN_POINT('',(-2.07036172478756E-15,-16.9057864376,17.4142135623731));
#562=CARTESIAN_POINT('Origin',(0.,-1.11022302462516E-16,0.5));
#563=UNCERTAINTY_MEASURE_WITH_UNIT(LENGTH_MEASURE(0.01),#567,
'DISTANCE_ACCURACY_VALUE',
'Maximum model space distance between geometric entities at asserted c
onnectivities');
#564=UNCERTAINTY_MEASURE_WITH_UNIT(LENGTH_MEASURE(0.01),#567,
'DISTANCE_ACCURACY_VALUE',
'Maximum model space distance between geometric entities at asserted c
onnectivities');
#565=(
GEOMETRIC_REPRESENTATION_CONTEXT(3)
GLOBAL_UNCERTAINTY_ASSIGNED_CONTEXT((#563))
GLOBAL_UNIT_ASSIGNED_CONTEXT((#567,#569,#570))
REPRESENTATION_CONTEXT('','3D')
);
#566=(
GEOMETRIC_REPRESENTATION_CONTEXT(3)
GLOBAL_UNCERTAINTY_ASSIGNED_CONTEXT((#564))
GLOBAL_UNIT_ASSIGNED_CONTEXT((#567,#569,#570))
REPRESENTATION_CONTEXT('','3D')
);
#567=(
LENGTH_UNIT()
NAMED_UNIT(*)
SI_UNIT(.MILLI.,.METRE.)
);
#568=(
LENGTH_UNIT()
NAMED_UNIT(*)
SI_UNIT(.CENTI.,.METRE.)
);
#569=(
NAMED_UNIT(*)
PLANE_ANGLE_UNIT()
SI_UNIT($,.RADIAN.)
);
#570=(
NAMED_UNIT(*)
SI_UNIT($,.STERADIAN.)
SOLID_ANGLE_UNIT()
);
#571=SHAPE_DEFINITION_REPRESENTATION(#572,#573);
#572=PRODUCT_DEFINITION_SHAPE('',$,#575);
#573=SHAPE_REPRESENTATION('',(#310),#565);
#574=PRODUCT_DEFINITION_CONTEXT('part definition',#579,'design');
#575=PRODUCT_DEFINITION('203600501',
'203600501 Trapezteller 60 mit Anti-Slip-Platte',#576,#574);
#576=PRODUCT_DEFINITION_FORMATION('',$,#581);
#577=PRODUCT_RELATED_PRODUCT_CATEGORY(
'203600501 Trapezteller 60 mit Anti-Slip-Platte',
'203600501 Trapezteller 60 mit Anti-Slip-Platte',(#581));
#578=APPLICATION_PROTOCOL_DEFINITION('international standard',
'automotive_design',2009,#579);
#579=APPLICATION_CONTEXT(
'Core Data for Automotive Mechanical Design Process');
#580=PRODUCT_CONTEXT('part definition',#579,'mechanical');
#581=PRODUCT('203600501',
'203600501 Trapezteller 60 mit Anti-Slip-Platte',
'Trapezteller 60 mit Anti-Slip-Platte',(#580));
#582=PRESENTATION_STYLE_ASSIGNMENT((#583));
#583=SURFACE_STYLE_USAGE(.BOTH.,#586);
#584=SURFACE_STYLE_RENDERING_WITH_PROPERTIES($,#590,(#585));
#585=SURFACE_STYLE_TRANSPARENT(0.);
#586=SURFACE_SIDE_STYLE('',(#587,#584));
#587=SURFACE_STYLE_FILL_AREA(#588);
#588=FILL_AREA_STYLE('',(#589));
#589=FILL_AREA_STYLE_COLOUR('',#590);
#590=COLOUR_RGB('',0.,0.,0.);
ENDSEC;
END-ISO-10303-21;
