ISO-10303-21;
HEADER;
/****************************************************************
 * Generated by software with PDE/Lib inside                    *
 * PDElib Version v51a, created 12/06/2005 Tue                  *
 * International Technegroup Inc. (www.iti-oh.com)              *
 ****************************************************************/
FILE_DESCRIPTION((''),'2;1');
FILE_NAME('SZ0960S.stp','2009-07-27T13:53:27',(''),(''),'Mechanical Desktop 2007','Mechanical Desktop 2007',', , ');
FILE_SCHEMA(('CONFIG_CONTROL_DESIGN'));
ENDSEC;
DATA;
#8=(NAMED_UNIT(*)PLANE_ANGLE_UNIT()SI_UNIT($,.RADIAN.));
#9=DIMENSIONAL_EXPONENTS(0.0,0.0,0.0,0.0,0.0,0.0,0.0);
#10=PLANE_ANGLE_MEASURE_WITH_UNIT(PLANE_ANGLE_MEASURE(0.017453292500000),#8);
#14=(CONVERSION_BASED_UNIT('DEGREE',#10)NAMED_UNIT(#9)PLANE_ANGLE_UNIT());
#18=(NAMED_UNIT(*)SI_UNIT($,.STERADIAN.)SOLID_ANGLE_UNIT());
#22=(LENGTH_UNIT()NAMED_UNIT(*)SI_UNIT(.MILLI.,.METRE.));
#23=UNCERTAINTY_MEASURE_WITH_UNIT(LENGTH_MEASURE(0.000001000000000),#22,'DISTANCE_ACCURACY_VALUE','');
#28=(GEOMETRIC_REPRESENTATION_CONTEXT(3)GLOBAL_UNCERTAINTY_ASSIGNED_CONTEXT((#23))GLOBAL_UNIT_ASSIGNED_CONTEXT((#14,#18,#22))REPRESENTATION_CONTEXT('None','None'));
#29=APPLICATION_CONTEXT('CONFIGURATION CONTROLLED 3D DESIGNS OF MECHANICAL PARTS AND ASSEMBLIES');
#30=APPLICATION_PROTOCOL_DEFINITION('INTERNATIONAL STANDARD','config_control_design',1995,#29);
#31=MECHANICAL_CONTEXT('3D Mechanical Parts',#29,'mechanical');
#32=PRODUCT('SZ0960S','SZ0960S',' ',(#31));
#33=PRODUCT_RELATED_PRODUCT_CATEGORY('detail',$,(#32,#568));
#34=PRODUCT_CATEGORY('part',$);
#35=PRODUCT_CATEGORY_RELATIONSHIP('None','None',#34,#33);
#36=PERSON('1','Design','Joe',$,$,$);
#37=ORGANIZATION($,'None','None');
#38=PERSON_AND_ORGANIZATION(#36,#37);
#39=PERSON_AND_ORGANIZATION_ROLE('design_owner');
#40=CC_DESIGN_PERSON_AND_ORGANIZATION_ASSIGNMENT(#38,#39,(#32,#568));
#41=PRODUCT_DEFINITION_FORMATION_WITH_SPECIFIED_SOURCE('None','None',#32,.NOT_KNOWN.);
#42=PERSON('2','Creator','Joe',$,$,$);
#43=ORGANIZATION($,'None','None');
#44=PERSON_AND_ORGANIZATION(#42,#43);
#45=PERSON_AND_ORGANIZATION_ROLE('creator');
#46=CC_DESIGN_PERSON_AND_ORGANIZATION_ASSIGNMENT(#44,#45,(#41,#569));
#47=PERSON('3','Supplier','Joe',$,$,$);
#48=ORGANIZATION($,'None','None');
#49=PERSON_AND_ORGANIZATION(#47,#48);
#50=PERSON_AND_ORGANIZATION_ROLE('design_supplier');
#51=CC_DESIGN_PERSON_AND_ORGANIZATION_ASSIGNMENT(#49,#50,(#41,#569));
#52=APPROVAL_STATUS('approved');
#53=APPROVAL(#52,'None');
#54=PERSON('4','Approver','Joe',$,$,$);
#55=ORGANIZATION($,'None','None');
#56=PERSON_AND_ORGANIZATION(#54,#55);
#57=APPROVAL_ROLE('approver');
#58=APPROVAL_PERSON_ORGANIZATION(#56,#53,#57);
#59=COORDINATED_UNIVERSAL_TIME_OFFSET(8,$,.BEHIND.);
#60=CALENDAR_DATE(1996,29,5);
#61=LOCAL_TIME(12,0,0.0,#59);
#62=DATE_AND_TIME(#60,#61);
#63=APPROVAL_DATE_TIME(#62,#53);
#64=CC_DESIGN_APPROVAL(#53,(#41,#569));
#65=SECURITY_CLASSIFICATION_LEVEL('unclassified');
#66=SECURITY_CLASSIFICATION('security','None',#65);
#67=CC_DESIGN_SECURITY_CLASSIFICATION(#66,(#41,#569,#583));
#68=APPROVAL_STATUS('approved');
#69=APPROVAL(#68,'None');
#70=PERSON('5','Approver','Joe',$,$,$);
#71=ORGANIZATION($,'None','None');
#72=PERSON_AND_ORGANIZATION(#70,#71);
#73=APPROVAL_ROLE('approver');
#74=APPROVAL_PERSON_ORGANIZATION(#72,#69,#73);
#75=COORDINATED_UNIVERSAL_TIME_OFFSET(8,$,.BEHIND.);
#76=CALENDAR_DATE(1996,29,5);
#77=LOCAL_TIME(12,0,0.0,#75);
#78=DATE_AND_TIME(#76,#77);
#79=APPROVAL_DATE_TIME(#78,#69);
#80=CC_DESIGN_APPROVAL(#69,(#66));
#81=PERSON('6','Classifier','Joe',$,$,$);
#82=ORGANIZATION($,'None','None');
#83=PERSON_AND_ORGANIZATION(#81,#82);
#84=PERSON_AND_ORGANIZATION_ROLE('classification_officer');
#85=CC_DESIGN_PERSON_AND_ORGANIZATION_ASSIGNMENT(#83,#84,(#66));
#86=COORDINATED_UNIVERSAL_TIME_OFFSET(8,$,.BEHIND.);
#87=CALENDAR_DATE(1996,29,5);
#88=LOCAL_TIME(12,0,0.0,#86);
#89=DATE_AND_TIME(#87,#88);
#90=DATE_TIME_ROLE('classification_date');
#91=CC_DESIGN_DATE_AND_TIME_ASSIGNMENT(#89,#90,(#66));
#92=DESIGN_CONTEXT('Design Context',#29,'design');
#93=PRODUCT_DEFINITION('None','None',#41,#92);
#94=PERSON('7','Creator','Joe',$,$,$);
#95=ORGANIZATION($,'None','None');
#96=PERSON_AND_ORGANIZATION(#94,#95);
#97=PERSON_AND_ORGANIZATION_ROLE('creator');
#98=CC_DESIGN_PERSON_AND_ORGANIZATION_ASSIGNMENT(#96,#97,(#93,#570));
#99=COORDINATED_UNIVERSAL_TIME_OFFSET(8,$,.BEHIND.);
#100=CALENDAR_DATE(1996,29,5);
#101=LOCAL_TIME(12,0,0.0,#99);
#102=DATE_AND_TIME(#100,#101);
#103=DATE_TIME_ROLE('creation_date');
#104=CC_DESIGN_DATE_AND_TIME_ASSIGNMENT(#102,#103,(#93,#570));
#105=APPROVAL_STATUS('approved');
#106=APPROVAL(#105,'None');
#107=PERSON('8','Approver','Joe',$,$,$);
#108=ORGANIZATION($,'None','None');
#109=PERSON_AND_ORGANIZATION(#107,#108);
#110=APPROVAL_ROLE('approver');
#111=APPROVAL_PERSON_ORGANIZATION(#109,#106,#110);
#112=COORDINATED_UNIVERSAL_TIME_OFFSET(8,$,.BEHIND.);
#113=CALENDAR_DATE(1996,29,5);
#114=LOCAL_TIME(12,0,0.0,#112);
#115=DATE_AND_TIME(#113,#114);
#116=APPROVAL_DATE_TIME(#115,#106);
#117=CC_DESIGN_APPROVAL(#106,(#93,#570));
#118=CARTESIAN_POINT('NONE',(0.0,0.0,0.0));
#119=DIRECTION('NONE',(0.0,0.0,1.0));
#120=DIRECTION('NONE',(1.0,0.0,0.0));
#121=AXIS2_PLACEMENT_3D('NONE',#118,#119,#120);
#122=SHAPE_REPRESENTATION('SR1',(#121,#577),#28);
#123=PRODUCT_DEFINITION_SHAPE('PDS1','Test Part',#93);
#124=SHAPE_DEFINITION_REPRESENTATION(#123,#122);
#125=CARTESIAN_POINT('',(336.770643169643170,58.342764260949075,-13.451105221663017));
#126=DIRECTION('',(0.0,0.0,1.0));
#127=DIRECTION('',(0.0,1.0,0.0));
#128=AXIS2_PLACEMENT_3D('',#125,#126,#127);
#129=CONICAL_SURFACE('',#128,7.0,41.000000000000085);
#130=CARTESIAN_POINT('',(336.770643169643170,68.342764260949082,-10.0));
#131=VERTEX_POINT('',#130);
#132=CARTESIAN_POINT('',(336.770643169643170,63.996330571867936,-14.999999999999998));
#133=VERTEX_POINT('',#132);
#134=CARTESIAN_POINT('',(336.770643169643170,68.342764260949082,-10.0));
#135=DIRECTION('',(0.0,-0.656059028990508,-0.754709580222771));
#136=VECTOR('',#135,6.625064966744064);
#137=LINE('',#134,#136);
#138=EDGE_CURVE('',#131,#133,#137,.T.);
#139=ORIENTED_EDGE('',*,*,#138,.F.);
#140=CARTESIAN_POINT('',(336.770643169643170,48.342764260949075,-9.999999999999996));
#141=VERTEX_POINT('',#140);
#142=CARTESIAN_POINT('',(336.770643169643170,58.342764260949075,-10.0));
#143=DIRECTION('',(0.0,0.0,-1.0));
#144=DIRECTION('',(0.0,1.0,0.0));
#145=AXIS2_PLACEMENT_3D('',#142,#143,#144);
#146=CIRCLE('',#145,10.0);
#147=EDGE_CURVE('',#141,#131,#146,.T.);
#148=ORIENTED_EDGE('',*,*,#147,.F.);
#149=CARTESIAN_POINT('',(336.770643169643110,52.689197950030227,-15.0));
#150=VERTEX_POINT('',#149);
#151=CARTESIAN_POINT('',(336.770643169643170,48.342764260949075,-9.999999999999996));
#152=DIRECTION('',(-8.580055E-015,0.656059028990509,-0.754709580222771));
#153=VECTOR('',#152,6.625064966744072);
#154=LINE('',#151,#153);
#155=EDGE_CURVE('',#141,#150,#154,.T.);
#156=ORIENTED_EDGE('',*,*,#155,.T.);
#157=CARTESIAN_POINT('',(336.770643169643170,58.342764260949075,-15.0));
#158=DIRECTION('',(0.0,0.0,1.0));
#159=DIRECTION('',(0.0,1.0,0.0));
#160=AXIS2_PLACEMENT_3D('',#157,#158,#159);
#161=CIRCLE('',#160,5.653566310918853);
#162=EDGE_CURVE('',#133,#150,#161,.T.);
#163=ORIENTED_EDGE('',*,*,#162,.F.);
#164=EDGE_LOOP('',(#139,#148,#156,#163));
#165=FACE_OUTER_BOUND('',#164,.T.);
#166=ADVANCED_FACE('',(#165),#129,.F.);
#167=CARTESIAN_POINT('',(296.770643169643170,58.342764260949089,-13.451105221663017));
#168=DIRECTION('',(0.0,0.0,1.0));
#169=DIRECTION('',(0.0,1.0,0.0));
#170=AXIS2_PLACEMENT_3D('',#167,#168,#169);
#171=CONICAL_SURFACE('',#170,7.0,41.000000000000085);
#172=CARTESIAN_POINT('',(296.770643169643170,68.342764260949082,-10.0));
#173=VERTEX_POINT('',#172);
#174=CARTESIAN_POINT('',(296.770643169643170,63.996330571867936,-14.999999999999998));
#175=VERTEX_POINT('',#174);
#176=CARTESIAN_POINT('',(296.770643169643170,68.342764260949082,-10.0));
#177=DIRECTION('',(0.0,-0.656059028990508,-0.754709580222771));
#178=VECTOR('',#177,6.625064966744064);
#179=LINE('',#176,#178);
#180=EDGE_CURVE('',#173,#175,#179,.T.);
#181=ORIENTED_EDGE('',*,*,#180,.F.);
#182=CARTESIAN_POINT('',(296.770643169643170,48.342764260949096,-10.000000000000004));
#183=VERTEX_POINT('',#182);
#184=CARTESIAN_POINT('',(296.770643169643170,58.342764260949089,-10.0));
#185=DIRECTION('',(0.0,0.0,-1.0));
#186=DIRECTION('',(0.0,1.0,0.0));
#187=AXIS2_PLACEMENT_3D('',#184,#185,#186);
#188=CIRCLE('',#187,10.0);
#189=EDGE_CURVE('',#183,#173,#188,.T.);
#190=ORIENTED_EDGE('',*,*,#189,.F.);
#191=CARTESIAN_POINT('',(296.770643169643110,52.689197950030234,-15.0));
#192=VERTEX_POINT('',#191);
#193=CARTESIAN_POINT('',(296.770643169643170,48.342764260949096,-10.000000000000004));
#194=DIRECTION('',(-8.580055E-015,0.656059028990508,-0.754709580222771));
#195=VECTOR('',#194,6.625064966744057);
#196=LINE('',#193,#195);
#197=EDGE_CURVE('',#183,#192,#196,.T.);
#198=ORIENTED_EDGE('',*,*,#197,.T.);
#199=CARTESIAN_POINT('',(296.770643169643170,58.342764260949089,-15.0));
#200=DIRECTION('',(0.0,0.0,1.0));
#201=DIRECTION('',(0.0,1.0,0.0));
#202=AXIS2_PLACEMENT_3D('',#199,#200,#201);
#203=CIRCLE('',#202,5.653566310918853);
#204=EDGE_CURVE('',#175,#192,#203,.T.);
#205=ORIENTED_EDGE('',*,*,#204,.F.);
#206=EDGE_LOOP('',(#181,#190,#198,#205));
#207=FACE_OUTER_BOUND('',#206,.T.);
#208=ADVANCED_FACE('',(#207),#171,.F.);
#209=CARTESIAN_POINT('',(353.270643169643170,74.842764260949082,-15.0));
#210=DIRECTION('',(0.0,0.0,1.0));
#211=DIRECTION('',(0.707106781186548,0.707106781186547,0.0));
#212=AXIS2_PLACEMENT_3D('',#209,#210,#211);
#213=CYLINDRICAL_SURFACE('',#212,3.500000000000000);
#214=CARTESIAN_POINT('',(353.270643169643170,78.342764260949082,-10.0));
#215=VERTEX_POINT('',#214);
#216=CARTESIAN_POINT('',(356.770643169643170,74.842764260949082,-10.0));
#217=VERTEX_POINT('',#216);
#218=CARTESIAN_POINT('',(353.270643169643170,74.842764260949082,-10.0));
#219=DIRECTION('',(0.0,0.0,-1.0));
#220=DIRECTION('',(0.707106781186548,0.707106781186547,0.0));
#221=AXIS2_PLACEMENT_3D('',#218,#219,#220);
#222=CIRCLE('',#221,3.500000000000000);
#223=EDGE_CURVE('',#215,#217,#222,.T.);
#224=ORIENTED_EDGE('',*,*,#223,.T.);
#225=CARTESIAN_POINT('',(356.770643169643170,74.842764260949082,-15.0));
#226=VERTEX_POINT('',#225);
#227=CARTESIAN_POINT('',(356.770643169643170,74.842764260949082,-10.0));
#228=DIRECTION('',(0.0,0.0,-1.0));
#229=VECTOR('',#228,5.0);
#230=LINE('',#227,#229);
#231=EDGE_CURVE('',#217,#226,#230,.T.);
#232=ORIENTED_EDGE('',*,*,#231,.T.);
#233=CARTESIAN_POINT('',(353.270643169643170,78.342764260949082,-15.0));
#234=VERTEX_POINT('',#233);
#235=CARTESIAN_POINT('',(353.270643169643170,74.842764260949082,-15.0));
#236=DIRECTION('',(0.0,0.0,1.0));
#237=DIRECTION('',(0.707106781186548,0.707106781186547,0.0));
#238=AXIS2_PLACEMENT_3D('',#235,#236,#237);
#239=CIRCLE('',#238,3.500000000000000);
#240=EDGE_CURVE('',#226,#234,#239,.T.);
#241=ORIENTED_EDGE('',*,*,#240,.T.);
#242=CARTESIAN_POINT('',(353.270643169643170,78.342764260949082,-15.0));
#243=DIRECTION('',(0.0,0.0,1.0));
#244=VECTOR('',#243,5.0);
#245=LINE('',#242,#244);
#246=EDGE_CURVE('',#234,#215,#245,.T.);
#247=ORIENTED_EDGE('',*,*,#246,.T.);
#248=EDGE_LOOP('',(#224,#232,#241,#247));
#249=FACE_OUTER_BOUND('',#248,.T.);
#250=ADVANCED_FACE('',(#249),#213,.T.);
#251=CARTESIAN_POINT('',(276.770643169643170,78.342764260949082,-15.0));
#252=DIRECTION('',(0.0,1.0,0.0));
#253=DIRECTION('',(0.0,0.0,1.0));
#254=AXIS2_PLACEMENT_3D('',#251,#252,#253);
#255=PLANE('',#254);
#256=ORIENTED_EDGE('',*,*,#246,.F.);
#257=CARTESIAN_POINT('',(280.270643169643170,78.342764260949082,-15.0));
#258=VERTEX_POINT('',#257);
#259=CARTESIAN_POINT('',(280.270643169643170,78.342764260949082,-15.0));
#260=DIRECTION('',(1.0,0.0,0.0));
#261=VECTOR('',#260,73.0);
#262=LINE('',#259,#261);
#263=EDGE_CURVE('',#258,#234,#262,.T.);
#264=ORIENTED_EDGE('',*,*,#263,.F.);
#265=CARTESIAN_POINT('',(280.270643169643170,78.342764260949082,-10.0));
#266=VERTEX_POINT('',#265);
#267=CARTESIAN_POINT('',(280.270643169643170,78.342764260949082,-10.0));
#268=DIRECTION('',(0.0,0.0,-1.0));
#269=VECTOR('',#268,5.0);
#270=LINE('',#267,#269);
#271=EDGE_CURVE('',#266,#258,#270,.T.);
#272=ORIENTED_EDGE('',*,*,#271,.F.);
#273=CARTESIAN_POINT('',(280.270643169643170,78.342764260949082,-10.0));
#274=DIRECTION('',(1.0,0.0,0.0));
#275=VECTOR('',#274,73.0);
#276=LINE('',#273,#275);
#277=EDGE_CURVE('',#266,#215,#276,.T.);
#278=ORIENTED_EDGE('',*,*,#277,.T.);
#279=EDGE_LOOP('',(#256,#264,#272,#278));
#280=FACE_OUTER_BOUND('',#279,.T.);
#281=ADVANCED_FACE('',(#280),#255,.T.);
#282=CARTESIAN_POINT('',(316.770643169643170,58.342764260949082,-15.0));
#283=DIRECTION('',(0.0,0.0,1.0));
#284=DIRECTION('',(0.0,-1.0,0.0));
#285=AXIS2_PLACEMENT_3D('',#282,#283,#284);
#286=PLANE('',#285);
#287=ORIENTED_EDGE('',*,*,#240,.F.);
#288=CARTESIAN_POINT('',(356.770643169643170,41.842764260949075,-15.0));
#289=VERTEX_POINT('',#288);
#290=CARTESIAN_POINT('',(356.770643169643170,74.842764260949082,-15.0));
#291=DIRECTION('',(0.0,-1.0,0.0));
#292=VECTOR('',#291,33.000000000000007);
#293=LINE('',#290,#292);
#294=EDGE_CURVE('',#226,#289,#293,.T.);
#295=ORIENTED_EDGE('',*,*,#294,.T.);
#296=CARTESIAN_POINT('',(353.270643169643170,38.342764260949075,-15.0));
#297=VERTEX_POINT('',#296);
#298=CARTESIAN_POINT('',(353.270643169643170,41.842764260949075,-15.0));
#299=DIRECTION('',(0.0,0.0,1.0));
#300=DIRECTION('',(0.707106781186547,-0.707106781186548,0.0));
#301=AXIS2_PLACEMENT_3D('',#298,#299,#300);
#302=CIRCLE('',#301,3.500000000000000);
#303=EDGE_CURVE('',#297,#289,#302,.T.);
#304=ORIENTED_EDGE('',*,*,#303,.F.);
#305=CARTESIAN_POINT('',(280.270643169643170,38.342764260949089,-15.0));
#306=VERTEX_POINT('',#305);
#307=CARTESIAN_POINT('',(353.270643169643170,38.342764260949075,-15.0));
#308=DIRECTION('',(-1.0,0.0,0.0));
#309=VECTOR('',#308,73.0);
#310=LINE('',#307,#309);
#311=EDGE_CURVE('',#297,#306,#310,.T.);
#312=ORIENTED_EDGE('',*,*,#311,.T.);
#313=CARTESIAN_POINT('',(276.770643169643170,41.842764260949089,-15.0));
#314=VERTEX_POINT('',#313);
#315=CARTESIAN_POINT('',(280.270643169643170,41.842764260949089,-15.0));
#316=DIRECTION('',(0.0,0.0,1.0));
#317=DIRECTION('',(-0.707106781186548,-0.707106781186547,0.0));
#318=AXIS2_PLACEMENT_3D('',#315,#316,#317);
#319=CIRCLE('',#318,3.500000000000000);
#320=EDGE_CURVE('',#314,#306,#319,.T.);
#321=ORIENTED_EDGE('',*,*,#320,.F.);
#322=CARTESIAN_POINT('',(276.770643169643170,74.842764260949082,-15.0));
#323=VERTEX_POINT('',#322);
#324=CARTESIAN_POINT('',(276.770643169643170,41.842764260949089,-15.0));
#325=DIRECTION('',(0.0,1.0,0.0));
#326=VECTOR('',#325,32.999999999999993);
#327=LINE('',#324,#326);
#328=EDGE_CURVE('',#314,#323,#327,.T.);
#329=ORIENTED_EDGE('',*,*,#328,.T.);
#330=CARTESIAN_POINT('',(280.270643169643170,74.842764260949082,-15.0));
#331=DIRECTION('',(0.0,0.0,1.0));
#332=DIRECTION('',(-0.707106781186547,0.707106781186548,0.0));
#333=AXIS2_PLACEMENT_3D('',#330,#331,#332);
#334=CIRCLE('',#333,3.500000000000000);
#335=EDGE_CURVE('',#258,#323,#334,.T.);
#336=ORIENTED_EDGE('',*,*,#335,.F.);
#337=ORIENTED_EDGE('',*,*,#263,.T.);
#338=EDGE_LOOP('',(#287,#295,#304,#312,#321,#329,#336,#337));
#339=FACE_OUTER_BOUND('',#338,.T.);
#340=CARTESIAN_POINT('',(296.770643169643170,58.342764260949089,-15.0));
#341=DIRECTION('',(0.0,0.0,1.0));
#342=DIRECTION('',(0.0,1.0,0.0));
#343=AXIS2_PLACEMENT_3D('',#340,#341,#342);
#344=CIRCLE('',#343,5.653566310918853);
#345=EDGE_CURVE('',#192,#175,#344,.T.);
#346=ORIENTED_EDGE('',*,*,#345,.T.);
#347=ORIENTED_EDGE('',*,*,#204,.T.);
#348=EDGE_LOOP('',(#346,#347));
#349=FACE_BOUND('',#348,.T.);
#350=CARTESIAN_POINT('',(336.770643169643170,58.342764260949075,-15.0));
#351=DIRECTION('',(0.0,0.0,1.0));
#352=DIRECTION('',(0.0,1.0,0.0));
#353=AXIS2_PLACEMENT_3D('',#350,#351,#352);
#354=CIRCLE('',#353,5.653566310918853);
#355=EDGE_CURVE('',#150,#133,#354,.T.);
#356=ORIENTED_EDGE('',*,*,#355,.T.);
#357=ORIENTED_EDGE('',*,*,#162,.T.);
#358=EDGE_LOOP('',(#356,#357));
#359=FACE_BOUND('',#358,.T.);
#360=ADVANCED_FACE('',(#339,#349,#359),#286,.F.);
#361=CARTESIAN_POINT('',(280.270643169643170,74.842764260949082,-15.0));
#362=DIRECTION('',(0.0,0.0,1.0));
#363=DIRECTION('',(-0.707106781186547,0.707106781186548,0.0));
#364=AXIS2_PLACEMENT_3D('',#361,#362,#363);
#365=CYLINDRICAL_SURFACE('',#364,3.500000000000000);
#366=CARTESIAN_POINT('',(276.770643169643170,74.842764260949082,-10.0));
#367=VERTEX_POINT('',#366);
#368=CARTESIAN_POINT('',(280.270643169643170,74.842764260949082,-10.0));
#369=DIRECTION('',(0.0,0.0,-1.0));
#370=DIRECTION('',(-0.707106781186547,0.707106781186548,0.0));
#371=AXIS2_PLACEMENT_3D('',#368,#369,#370);
#372=CIRCLE('',#371,3.500000000000000);
#373=EDGE_CURVE('',#367,#266,#372,.T.);
#374=ORIENTED_EDGE('',*,*,#373,.T.);
#375=ORIENTED_EDGE('',*,*,#271,.T.);
#376=ORIENTED_EDGE('',*,*,#335,.T.);
#377=CARTESIAN_POINT('',(276.770643169643170,74.842764260949082,-15.0));
#378=DIRECTION('',(0.0,0.0,1.0));
#379=VECTOR('',#378,5.0);
#380=LINE('',#377,#379);
#381=EDGE_CURVE('',#323,#367,#380,.T.);
#382=ORIENTED_EDGE('',*,*,#381,.T.);
#383=EDGE_LOOP('',(#374,#375,#376,#382));
#384=FACE_OUTER_BOUND('',#383,.T.);
#385=ADVANCED_FACE('',(#384),#365,.T.);
#386=CARTESIAN_POINT('',(276.770643169643170,38.342764260949089,-15.0));
#387=DIRECTION('',(-1.0,0.0,0.0));
#388=DIRECTION('',(0.0,0.0,-1.0));
#389=AXIS2_PLACEMENT_3D('',#386,#387,#388);
#390=PLANE('',#389);
#391=ORIENTED_EDGE('',*,*,#381,.F.);
#392=ORIENTED_EDGE('',*,*,#328,.F.);
#393=CARTESIAN_POINT('',(276.770643169643170,41.842764260949089,-10.0));
#394=VERTEX_POINT('',#393);
#395=CARTESIAN_POINT('',(276.770643169643170,41.842764260949089,-10.0));
#396=DIRECTION('',(0.0,0.0,-1.0));
#397=VECTOR('',#396,5.0);
#398=LINE('',#395,#397);
#399=EDGE_CURVE('',#394,#314,#398,.T.);
#400=ORIENTED_EDGE('',*,*,#399,.F.);
#401=CARTESIAN_POINT('',(276.770643169643170,41.842764260949089,-10.0));
#402=DIRECTION('',(0.0,1.0,0.0));
#403=VECTOR('',#402,32.999999999999993);
#404=LINE('',#401,#403);
#405=EDGE_CURVE('',#394,#367,#404,.T.);
#406=ORIENTED_EDGE('',*,*,#405,.T.);
#407=EDGE_LOOP('',(#391,#392,#400,#406));
#408=FACE_OUTER_BOUND('',#407,.T.);
#409=ADVANCED_FACE('',(#408),#390,.T.);
#410=CARTESIAN_POINT('',(280.270643169643170,41.842764260949089,-15.0));
#411=DIRECTION('',(0.0,0.0,1.0));
#412=DIRECTION('',(-0.707106781186548,-0.707106781186547,0.0));
#413=AXIS2_PLACEMENT_3D('',#410,#411,#412);
#414=CYLINDRICAL_SURFACE('',#413,3.500000000000000);
#415=CARTESIAN_POINT('',(280.270643169643170,38.342764260949089,-10.0));
#416=VERTEX_POINT('',#415);
#417=CARTESIAN_POINT('',(280.270643169643170,41.842764260949089,-10.0));
#418=DIRECTION('',(0.0,0.0,-1.0));
#419=DIRECTION('',(-0.707106781186548,-0.707106781186547,0.0));
#420=AXIS2_PLACEMENT_3D('',#417,#418,#419);
#421=CIRCLE('',#420,3.500000000000000);
#422=EDGE_CURVE('',#416,#394,#421,.T.);
#423=ORIENTED_EDGE('',*,*,#422,.T.);
#424=ORIENTED_EDGE('',*,*,#399,.T.);
#425=ORIENTED_EDGE('',*,*,#320,.T.);
#426=CARTESIAN_POINT('',(280.270643169643170,38.342764260949089,-15.0));
#427=DIRECTION('',(0.0,0.0,1.0));
#428=VECTOR('',#427,5.0);
#429=LINE('',#426,#428);
#430=EDGE_CURVE('',#306,#416,#429,.T.);
#431=ORIENTED_EDGE('',*,*,#430,.T.);
#432=EDGE_LOOP('',(#423,#424,#425,#431));
#433=FACE_OUTER_BOUND('',#432,.T.);
#434=ADVANCED_FACE('',(#433),#414,.T.);
#435=CARTESIAN_POINT('',(356.770643169643170,38.342764260949075,-15.0));
#436=DIRECTION('',(0.0,-1.0,0.0));
#437=DIRECTION('',(0.0,0.0,-1.0));
#438=AXIS2_PLACEMENT_3D('',#435,#436,#437);
#439=PLANE('',#438);
#440=ORIENTED_EDGE('',*,*,#430,.F.);
#441=ORIENTED_EDGE('',*,*,#311,.F.);
#442=CARTESIAN_POINT('',(353.270643169643170,38.342764260949075,-10.0));
#443=VERTEX_POINT('',#442);
#444=CARTESIAN_POINT('',(353.270643169643170,38.342764260949075,-10.0));
#445=DIRECTION('',(0.0,0.0,-1.0));
#446=VECTOR('',#445,5.0);
#447=LINE('',#444,#446);
#448=EDGE_CURVE('',#443,#297,#447,.T.);
#449=ORIENTED_EDGE('',*,*,#448,.F.);
#450=CARTESIAN_POINT('',(353.270643169643170,38.342764260949075,-10.0));
#451=DIRECTION('',(-1.0,0.0,0.0));
#452=VECTOR('',#451,73.0);
#453=LINE('',#450,#452);
#454=EDGE_CURVE('',#443,#416,#453,.T.);
#455=ORIENTED_EDGE('',*,*,#454,.T.);
#456=EDGE_LOOP('',(#440,#441,#449,#455));
#457=FACE_OUTER_BOUND('',#456,.T.);
#458=ADVANCED_FACE('',(#457),#439,.T.);
#459=CARTESIAN_POINT('',(353.270643169643170,41.842764260949075,-15.0));
#460=DIRECTION('',(0.0,0.0,1.0));
#461=DIRECTION('',(0.707106781186547,-0.707106781186548,0.0));
#462=AXIS2_PLACEMENT_3D('',#459,#460,#461);
#463=CYLINDRICAL_SURFACE('',#462,3.500000000000000);
#464=CARTESIAN_POINT('',(356.770643169643170,41.842764260949075,-10.0));
#465=VERTEX_POINT('',#464);
#466=CARTESIAN_POINT('',(353.270643169643170,41.842764260949075,-10.0));
#467=DIRECTION('',(0.0,0.0,-1.0));
#468=DIRECTION('',(0.707106781186547,-0.707106781186548,0.0));
#469=AXIS2_PLACEMENT_3D('',#466,#467,#468);
#470=CIRCLE('',#469,3.500000000000000);
#471=EDGE_CURVE('',#465,#443,#470,.T.);
#472=ORIENTED_EDGE('',*,*,#471,.T.);
#473=ORIENTED_EDGE('',*,*,#448,.T.);
#474=ORIENTED_EDGE('',*,*,#303,.T.);
#475=CARTESIAN_POINT('',(356.770643169643170,41.842764260949075,-15.0));
#476=DIRECTION('',(0.0,0.0,1.0));
#477=VECTOR('',#476,5.0);
#478=LINE('',#475,#477);
#479=EDGE_CURVE('',#289,#465,#478,.T.);
#480=ORIENTED_EDGE('',*,*,#479,.T.);
#481=EDGE_LOOP('',(#472,#473,#474,#480));
#482=FACE_OUTER_BOUND('',#481,.T.);
#483=ADVANCED_FACE('',(#482),#463,.T.);
#484=CARTESIAN_POINT('',(296.770643169643170,58.342764260949089,-13.451105221663017));
#485=DIRECTION('',(0.0,0.0,1.0));
#486=DIRECTION('',(0.0,1.0,0.0));
#487=AXIS2_PLACEMENT_3D('',#484,#485,#486);
#488=CONICAL_SURFACE('',#487,7.0,41.000000000000085);
#489=ORIENTED_EDGE('',*,*,#180,.T.);
#490=ORIENTED_EDGE('',*,*,#345,.F.);
#491=ORIENTED_EDGE('',*,*,#197,.F.);
#492=CARTESIAN_POINT('',(296.770643169643170,58.342764260949089,-10.0));
#493=DIRECTION('',(0.0,0.0,-1.0));
#494=DIRECTION('',(0.0,1.0,0.0));
#495=AXIS2_PLACEMENT_3D('',#492,#493,#494);
#496=CIRCLE('',#495,10.0);
#497=EDGE_CURVE('',#173,#183,#496,.T.);
#498=ORIENTED_EDGE('',*,*,#497,.F.);
#499=EDGE_LOOP('',(#489,#490,#491,#498));
#500=FACE_OUTER_BOUND('',#499,.T.);
#501=ADVANCED_FACE('',(#500),#488,.F.);
#502=CARTESIAN_POINT('',(336.770643169643170,58.342764260949075,-13.451105221663017));
#503=DIRECTION('',(0.0,0.0,1.0));
#504=DIRECTION('',(0.0,1.0,0.0));
#505=AXIS2_PLACEMENT_3D('',#502,#503,#504);
#506=CONICAL_SURFACE('',#505,7.0,41.000000000000085);
#507=ORIENTED_EDGE('',*,*,#138,.T.);
#508=ORIENTED_EDGE('',*,*,#355,.F.);
#509=ORIENTED_EDGE('',*,*,#155,.F.);
#510=CARTESIAN_POINT('',(336.770643169643170,58.342764260949075,-10.0));
#511=DIRECTION('',(0.0,0.0,-1.0));
#512=DIRECTION('',(0.0,1.0,0.0));
#513=AXIS2_PLACEMENT_3D('',#510,#511,#512);
#514=CIRCLE('',#513,10.0);
#515=EDGE_CURVE('',#131,#141,#514,.T.);
#516=ORIENTED_EDGE('',*,*,#515,.F.);
#517=EDGE_LOOP('',(#507,#508,#509,#516));
#518=FACE_OUTER_BOUND('',#517,.T.);
#519=ADVANCED_FACE('',(#518),#506,.F.);
#520=CARTESIAN_POINT('',(356.770643169643170,78.342764260949082,-15.0));
#521=DIRECTION('',(1.0,0.0,0.0));
#522=DIRECTION('',(0.0,0.0,1.0));
#523=AXIS2_PLACEMENT_3D('',#520,#521,#522);
#524=PLANE('',#523);
#525=ORIENTED_EDGE('',*,*,#231,.F.);
#526=CARTESIAN_POINT('',(356.770643169643170,74.842764260949082,-10.0));
#527=DIRECTION('',(0.0,-1.0,0.0));
#528=VECTOR('',#527,33.000000000000007);
#529=LINE('',#526,#528);
#530=EDGE_CURVE('',#217,#465,#529,.T.);
#531=ORIENTED_EDGE('',*,*,#530,.T.);
#532=ORIENTED_EDGE('',*,*,#479,.F.);
#533=ORIENTED_EDGE('',*,*,#294,.F.);
#534=EDGE_LOOP('',(#525,#531,#532,#533));
#535=FACE_OUTER_BOUND('',#534,.T.);
#536=ADVANCED_FACE('',(#535),#524,.T.);
#537=CARTESIAN_POINT('',(356.770643169643170,78.342764260949082,-10.0));
#538=DIRECTION('',(0.0,0.0,-1.0));
#539=DIRECTION('',(0.0,1.0,0.0));
#540=AXIS2_PLACEMENT_3D('',#537,#538,#539);
#541=PLANE('',#540);
#542=ORIENTED_EDGE('',*,*,#223,.F.);
#543=ORIENTED_EDGE('',*,*,#277,.F.);
#544=ORIENTED_EDGE('',*,*,#373,.F.);
#545=ORIENTED_EDGE('',*,*,#405,.F.);
#546=ORIENTED_EDGE('',*,*,#422,.F.);
#547=ORIENTED_EDGE('',*,*,#454,.F.);
#548=ORIENTED_EDGE('',*,*,#471,.F.);
#549=ORIENTED_EDGE('',*,*,#530,.F.);
#550=EDGE_LOOP('',(#542,#543,#544,#545,#546,#547,#548,#549));
#551=FACE_OUTER_BOUND('',#550,.T.);
#552=ORIENTED_EDGE('',*,*,#497,.T.);
#553=ORIENTED_EDGE('',*,*,#189,.T.);
#554=EDGE_LOOP('',(#552,#553));
#555=FACE_BOUND('',#554,.T.);
#556=ORIENTED_EDGE('',*,*,#515,.T.);
#557=ORIENTED_EDGE('',*,*,#147,.T.);
#558=EDGE_LOOP('',(#556,#557));
#559=FACE_BOUND('',#558,.T.);
#560=ADVANCED_FACE('',(#551,#555,#559),#541,.F.);
#561=CLOSED_SHELL('',(#166,#208,#250,#281,#360,#385,#409,#434,#458,#483,#501,#519,#536,#560));
#562=MANIFOLD_SOLID_BREP('89C',#561);
#567=(GEOMETRIC_REPRESENTATION_CONTEXT(3)GLOBAL_UNCERTAINTY_ASSIGNED_CONTEXT((#23))GLOBAL_UNIT_ASSIGNED_CONTEXT((#14,#18,#22))REPRESENTATION_CONTEXT('Component','Component'));
#568=PRODUCT('SZ0950S','SZ0950S',' ',(#31));
#569=PRODUCT_DEFINITION_FORMATION_WITH_SPECIFIED_SOURCE('None','None',#568,.NOT_KNOWN.);
#570=PRODUCT_DEFINITION('None','None',#569,#92);
#571=SHAPE_REPRESENTATION('SR2',(#121),#567);
#572=PRODUCT_DEFINITION_SHAPE('PDS2','Test Part',#570);
#573=SHAPE_DEFINITION_REPRESENTATION(#572,#571);
#574=CARTESIAN_POINT('NONE',(198.335095191713660,220.582150172290080,0.0));
#575=DIRECTION('NONE',(0.0,0.0,1.0));
#576=DIRECTION('NONE',(1.0,0.0,0.0));
#577=AXIS2_PLACEMENT_3D('NONE',#574,#575,#576);
#578=ITEM_DEFINED_TRANSFORMATION('IDT1',' ',#121,#577);
#582=(REPRESENTATION_RELATIONSHIP(' ',' ',#571,#122)REPRESENTATION_RELATIONSHIP_WITH_TRANSFORMATION(#578)SHAPE_REPRESENTATION_RELATIONSHIP());
#583=NEXT_ASSEMBLY_USAGE_OCCURRENCE('NAUO1',' ',' ',#93,#570,$);
#584=PRODUCT_DEFINITION_SHAPE('PDS_NAUO1',' ',#583);
#585=CONTEXT_DEPENDENT_SHAPE_REPRESENTATION(#582,#584);
#586=ADVANCED_BREP_SHAPE_REPRESENTATION('ABSR1',(#562),#28);
#587=SHAPE_REPRESENTATION_RELATIONSHIP('SRRPL1',' ',#586,#122);
ENDSEC;
END-ISO-10303-21;
