ISO-10303-21;
HEADER;
/****************************************************************
 * Generated by software with PDE/Lib inside                    *
 * PDElib Version v51a, created 12/06/2005 Tue                  *
 * International Technegroup Inc. (www.iti-oh.com)              *
 ****************************************************************/
FILE_DESCRIPTION((''),'2;1');
FILE_NAME('SV2001V.stp','2009-11-25T09:48:55',(''),(''),'Mechanical Desktop 2007','Mechanical Desktop 2007',', , ');
FILE_SCHEMA(('CONFIG_CONTROL_DESIGN'));
ENDSEC;
DATA;
#8=(NAMED_UNIT(*)PLANE_ANGLE_UNIT()SI_UNIT($,.RADIAN.));
#9=DIMENSIONAL_EXPONENTS(0.0,0.0,0.0,0.0,0.0,0.0,0.0);
#10=PLANE_ANGLE_MEASURE_WITH_UNIT(PLANE_ANGLE_MEASURE(0.017453292500000),#8);
#14=(CONVERSION_BASED_UNIT('DEGREE',#10)NAMED_UNIT(#9)PLANE_ANGLE_UNIT());
#18=(NAMED_UNIT(*)SI_UNIT($,.STERADIAN.)SOLID_ANGLE_UNIT());
#22=(LENGTH_UNIT()NAMED_UNIT(*)SI_UNIT(.MILLI.,.METRE.));
#23=UNCERTAINTY_MEASURE_WITH_UNIT(LENGTH_MEASURE(0.000001000000000),#22,'DISTANCE_ACCURACY_VALUE','');
#28=(GEOMETRIC_REPRESENTATION_CONTEXT(3)GLOBAL_UNCERTAINTY_ASSIGNED_CONTEXT((#23))GLOBAL_UNIT_ASSIGNED_CONTEXT((#14,#18,#22))REPRESENTATION_CONTEXT('None','None'));
#29=APPLICATION_CONTEXT('CONFIGURATION CONTROLLED 3D DESIGNS OF MECHANICAL PARTS AND ASSEMBLIES');
#30=APPLICATION_PROTOCOL_DEFINITION('INTERNATIONAL STANDARD','config_control_design',1995,#29);
#31=MECHANICAL_CONTEXT('3D Mechanical Parts',#29,'mechanical');
#32=PRODUCT('SV2001V','SV2001V',' ',(#31));
#33=PRODUCT_RELATED_PRODUCT_CATEGORY('detail',$,(#32));
#34=PRODUCT_CATEGORY('part',$);
#35=PRODUCT_CATEGORY_RELATIONSHIP('None','None',#34,#33);
#36=PERSON('1','Design','Joe',$,$,$);
#37=ORGANIZATION($,'None','None');
#38=PERSON_AND_ORGANIZATION(#36,#37);
#39=PERSON_AND_ORGANIZATION_ROLE('design_owner');
#40=CC_DESIGN_PERSON_AND_ORGANIZATION_ASSIGNMENT(#38,#39,(#32));
#41=PRODUCT_DEFINITION_FORMATION_WITH_SPECIFIED_SOURCE('None','None',#32,.NOT_KNOWN.);
#42=PERSON('2','Creator','Joe',$,$,$);
#43=ORGANIZATION($,'None','None');
#44=PERSON_AND_ORGANIZATION(#42,#43);
#45=PERSON_AND_ORGANIZATION_ROLE('creator');
#46=CC_DESIGN_PERSON_AND_ORGANIZATION_ASSIGNMENT(#44,#45,(#41));
#47=PERSON('3','Supplier','Joe',$,$,$);
#48=ORGANIZATION($,'None','None');
#49=PERSON_AND_ORGANIZATION(#47,#48);
#50=PERSON_AND_ORGANIZATION_ROLE('design_supplier');
#51=CC_DESIGN_PERSON_AND_ORGANIZATION_ASSIGNMENT(#49,#50,(#41));
#52=APPROVAL_STATUS('approved');
#53=APPROVAL(#52,'None');
#54=PERSON('4','Approver','Joe',$,$,$);
#55=ORGANIZATION($,'None','None');
#56=PERSON_AND_ORGANIZATION(#54,#55);
#57=APPROVAL_ROLE('approver');
#58=APPROVAL_PERSON_ORGANIZATION(#56,#53,#57);
#59=COORDINATED_UNIVERSAL_TIME_OFFSET(8,$,.BEHIND.);
#60=CALENDAR_DATE(1996,29,5);
#61=LOCAL_TIME(12,0,0.0,#59);
#62=DATE_AND_TIME(#60,#61);
#63=APPROVAL_DATE_TIME(#62,#53);
#64=CC_DESIGN_APPROVAL(#53,(#41));
#65=SECURITY_CLASSIFICATION_LEVEL('unclassified');
#66=SECURITY_CLASSIFICATION('security','None',#65);
#67=CC_DESIGN_SECURITY_CLASSIFICATION(#66,(#41));
#68=APPROVAL_STATUS('approved');
#69=APPROVAL(#68,'None');
#70=PERSON('5','Approver','Joe',$,$,$);
#71=ORGANIZATION($,'None','None');
#72=PERSON_AND_ORGANIZATION(#70,#71);
#73=APPROVAL_ROLE('approver');
#74=APPROVAL_PERSON_ORGANIZATION(#72,#69,#73);
#75=COORDINATED_UNIVERSAL_TIME_OFFSET(8,$,.BEHIND.);
#76=CALENDAR_DATE(1996,29,5);
#77=LOCAL_TIME(12,0,0.0,#75);
#78=DATE_AND_TIME(#76,#77);
#79=APPROVAL_DATE_TIME(#78,#69);
#80=CC_DESIGN_APPROVAL(#69,(#66));
#81=PERSON('6','Classifier','Joe',$,$,$);
#82=ORGANIZATION($,'None','None');
#83=PERSON_AND_ORGANIZATION(#81,#82);
#84=PERSON_AND_ORGANIZATION_ROLE('classification_officer');
#85=CC_DESIGN_PERSON_AND_ORGANIZATION_ASSIGNMENT(#83,#84,(#66));
#86=COORDINATED_UNIVERSAL_TIME_OFFSET(8,$,.BEHIND.);
#87=CALENDAR_DATE(1996,29,5);
#88=LOCAL_TIME(12,0,0.0,#86);
#89=DATE_AND_TIME(#87,#88);
#90=DATE_TIME_ROLE('classification_date');
#91=CC_DESIGN_DATE_AND_TIME_ASSIGNMENT(#89,#90,(#66));
#92=DESIGN_CONTEXT('Design Context',#29,'design');
#93=PRODUCT_DEFINITION('None','None',#41,#92);
#94=PERSON('7','Creator','Joe',$,$,$);
#95=ORGANIZATION($,'None','None');
#96=PERSON_AND_ORGANIZATION(#94,#95);
#97=PERSON_AND_ORGANIZATION_ROLE('creator');
#98=CC_DESIGN_PERSON_AND_ORGANIZATION_ASSIGNMENT(#96,#97,(#93));
#99=COORDINATED_UNIVERSAL_TIME_OFFSET(8,$,.BEHIND.);
#100=CALENDAR_DATE(1996,29,5);
#101=LOCAL_TIME(12,0,0.0,#99);
#102=DATE_AND_TIME(#100,#101);
#103=DATE_TIME_ROLE('creation_date');
#104=CC_DESIGN_DATE_AND_TIME_ASSIGNMENT(#102,#103,(#93));
#105=APPROVAL_STATUS('approved');
#106=APPROVAL(#105,'None');
#107=PERSON('8','Approver','Joe',$,$,$);
#108=ORGANIZATION($,'None','None');
#109=PERSON_AND_ORGANIZATION(#107,#108);
#110=APPROVAL_ROLE('approver');
#111=APPROVAL_PERSON_ORGANIZATION(#109,#106,#110);
#112=COORDINATED_UNIVERSAL_TIME_OFFSET(8,$,.BEHIND.);
#113=CALENDAR_DATE(1996,29,5);
#114=LOCAL_TIME(12,0,0.0,#112);
#115=DATE_AND_TIME(#113,#114);
#116=APPROVAL_DATE_TIME(#115,#106);
#117=CC_DESIGN_APPROVAL(#106,(#93));
#118=CARTESIAN_POINT('NONE',(0.0,0.0,0.0));
#119=DIRECTION('NONE',(0.0,0.0,1.0));
#120=DIRECTION('NONE',(1.0,0.0,0.0));
#121=AXIS2_PLACEMENT_3D('NONE',#118,#119,#120);
#122=SHAPE_REPRESENTATION('SR1',(#121),#28);
#123=PRODUCT_DEFINITION_SHAPE('PDS1','Test Part',#93);
#124=SHAPE_DEFINITION_REPRESENTATION(#123,#122);
#125=CARTESIAN_POINT('',(43.296549743890495,24.637332142053310,161.399999999999150));
#126=DIRECTION('',(0.0,-2.220446E-016,-1.0));
#127=DIRECTION('',(1.0,0.0,0.0));
#128=AXIS2_PLACEMENT_3D('',#125,#126,#127);
#129=CYLINDRICAL_SURFACE('',#128,3.0);
#130=CARTESIAN_POINT('',(46.296549743890495,24.637332142053310,168.899999999999150));
#131=VERTEX_POINT('',#130);
#132=CARTESIAN_POINT('',(46.296549743890495,24.637332142053310,158.739062248150900));
#133=VERTEX_POINT('',#132);
#134=CARTESIAN_POINT('',(46.296549743890495,24.637332142053310,168.899999999999150));
#135=DIRECTION('',(0.0,0.0,-1.0));
#136=VECTOR('',#135,10.160937751848252);
#137=LINE('',#134,#136);
#138=EDGE_CURVE('',#131,#133,#137,.T.);
#139=ORIENTED_EDGE('',*,*,#138,.F.);
#140=CARTESIAN_POINT('',(40.296549743890495,24.637332142053310,168.899999999999150));
#141=VERTEX_POINT('',#140);
#142=CARTESIAN_POINT('',(43.296549743890495,24.637332142053310,168.899999999999150));
#143=DIRECTION('',(0.0,0.0,-1.0));
#144=DIRECTION('',(1.0,0.0,0.0));
#145=AXIS2_PLACEMENT_3D('',#142,#143,#144);
#146=CIRCLE('',#145,3.0);
#147=EDGE_CURVE('',#141,#131,#146,.T.);
#148=ORIENTED_EDGE('',*,*,#147,.F.);
#149=CARTESIAN_POINT('',(40.296549743890495,24.637332142053310,158.739062248150900));
#150=VERTEX_POINT('',#149);
#151=CARTESIAN_POINT('',(40.296549743890495,24.637332142053310,168.899999999999150));
#152=DIRECTION('',(0.0,0.0,-1.0));
#153=VECTOR('',#152,10.160937751848252);
#154=LINE('',#151,#153);
#155=EDGE_CURVE('',#141,#150,#154,.T.);
#156=ORIENTED_EDGE('',*,*,#155,.T.);
#157=CARTESIAN_POINT('',(46.296549743890495,24.637332142053310,158.739062248150900));
#158=CARTESIAN_POINT('',(46.296549743890495,24.827463070781903,158.739062248150900));
#159=CARTESIAN_POINT('',(46.278184265058485,25.023518001467494,158.732162657524730));
#160=CARTESIAN_POINT('',(46.201461707443983,25.412425957486334,158.704281243825560));
#161=CARTESIAN_POINT('',(46.143127361983005,25.605285572633733,158.683328796177050));
#162=CARTESIAN_POINT('',(45.989583860618609,25.974308607899701,158.631211077043300));
#163=CARTESIAN_POINT('',(45.894252936833922,26.150796328487075,158.600061493895170));
#164=CARTESIAN_POINT('',(45.674568802145302,26.476805187201848,158.533817169401090));
#165=CARTESIAN_POINT('',(45.550195877765198,26.626326695297905,158.498789642532360));
#166=CARTESIAN_POINT('',(45.285618072266928,26.890904500796154,158.431591105844920));
#167=CARTESIAN_POINT('',(45.136131594036684,27.015268435806775,158.397000656020340));
#168=CARTESIAN_POINT('',(44.810103316267941,27.234984540928792,158.332333877200630));
#169=CARTESIAN_POINT('',(44.633561089525770,27.330353191962502,158.302315712820100));
#170=CARTESIAN_POINT('',(44.264429085182712,27.483939141148426,158.252502264982780));
#171=CARTESIAN_POINT('',(44.071516628263353,27.542278424074340,158.232704635262450));
#172=CARTESIAN_POINT('',(43.682592099728012,27.618985688808323,158.206445260882190));
#173=CARTESIAN_POINT('',(43.486574669592002,27.637332142053310,158.199999999999140));
#174=CARTESIAN_POINT('',(43.106524818188987,27.637332142053310,158.199999999999140));
#175=CARTESIAN_POINT('',(42.910507388052977,27.618985688808323,158.206445260882190));
#176=CARTESIAN_POINT('',(42.521582859517636,27.542278424074340,158.232704635262450));
#177=CARTESIAN_POINT('',(42.328670402598277,27.483939141148397,158.252502264982780));
#178=CARTESIAN_POINT('',(41.959538398255219,27.330353191962502,158.302315712820100));
#179=CARTESIAN_POINT('',(41.782996171513034,27.234984540928792,158.332333877200630));
#180=CARTESIAN_POINT('',(41.456967893744292,27.015268435806775,158.397000656020340));
#181=CARTESIAN_POINT('',(41.307481415514054,26.890904500796154,158.431591105844920));
#182=CARTESIAN_POINT('',(41.042903610015784,26.626326695297905,158.498789642532360));
#183=CARTESIAN_POINT('',(40.918530685635695,26.476805187201848,158.533817169401090));
#184=CARTESIAN_POINT('',(40.698846550947074,26.150796328487075,158.600061493895170));
#185=CARTESIAN_POINT('',(40.603515627162380,25.974308607899701,158.631211077043300));
#186=CARTESIAN_POINT('',(40.449972125797984,25.605285572633733,158.683328796177050));
#187=CARTESIAN_POINT('',(40.391637780337007,25.412425957486334,158.704281243825560));
#188=CARTESIAN_POINT('',(40.314915222722504,25.023518001467494,158.732162657524730));
#189=CARTESIAN_POINT('',(40.296549743890495,24.827463070781903,158.739062248150900));
#190=CARTESIAN_POINT('',(40.296549743890495,24.637332142053310,158.739062248150900));
#191=B_SPLINE_CURVE_WITH_KNOTS('',3,(#157,#158,#159,#160,#161,#162,#163,#164,#165,#166,#167,#168,#169,#170,#171,#172,#173,#174,#175,#176,#177,#178,#179,#180,#181,#182,#183,#184,#185,#186,#187,#188,#189,#190),.UNSPECIFIED.,.F.,.U.,(4,2,2,2,2,2,2,2,2,2,2,2,2,2,2,2,4),(9.123740506322772,9.694133292508592,10.264526078694415,10.834918864880237,11.405311651066057,11.975386428170580,12.545461205275105,13.115535982379630,13.685610759484153,14.255685536588677,14.825760313693202,15.395835090797727,15.965909867902251,16.536302654088075,17.106695440273896,17.677088226459716,18.247481012645537),.UNSPECIFIED.);
#192=EDGE_CURVE('',#133,#150,#191,.T.);
#193=ORIENTED_EDGE('',*,*,#192,.F.);
#194=EDGE_LOOP('',(#139,#148,#156,#193));
#195=FACE_OUTER_BOUND('',#194,.T.);
#196=ADVANCED_FACE('',(#195),#129,.F.);
#197=CARTESIAN_POINT('',(43.296549743890495,24.637332142053310,161.399999999999150));
#198=DIRECTION('',(0.0,-2.220446E-016,-1.0));
#199=DIRECTION('',(1.0,0.0,0.0));
#200=AXIS2_PLACEMENT_3D('',#197,#198,#199);
#201=CYLINDRICAL_SURFACE('',#200,3.0);
#202=ORIENTED_EDGE('',*,*,#138,.T.);
#203=CARTESIAN_POINT('',(40.296549743890495,24.637332142053310,158.739062248150900));
#204=CARTESIAN_POINT('',(40.296549743890495,24.447201213324718,158.739062248150900));
#205=CARTESIAN_POINT('',(40.314915222722504,24.251146282639127,158.732162657524730));
#206=CARTESIAN_POINT('',(40.391637780337007,23.862238326620286,158.704281243825560));
#207=CARTESIAN_POINT('',(40.449972125797984,23.669378711472888,158.683328796177020));
#208=CARTESIAN_POINT('',(40.603515627162380,23.300355676206919,158.631211077043280));
#209=CARTESIAN_POINT('',(40.698846550947074,23.123867955619545,158.600061493895170));
#210=CARTESIAN_POINT('',(40.918530685635695,22.797859096904773,158.533817169401090));
#211=CARTESIAN_POINT('',(41.042903610015784,22.648337588808715,158.498789642532330));
#212=CARTESIAN_POINT('',(41.307481415514054,22.383759783310467,158.431591105844890));
#213=CARTESIAN_POINT('',(41.456967893744299,22.259395848299846,158.397000656020310));
#214=CARTESIAN_POINT('',(41.782996171513041,22.039679743177828,158.332333877200600));
#215=CARTESIAN_POINT('',(41.959538398255219,21.944311092144119,158.302315712820080));
#216=CARTESIAN_POINT('',(42.328670402598277,21.790725142958223,158.252502264982750));
#217=CARTESIAN_POINT('',(42.521582859517636,21.732385860032281,158.232704635262420));
#218=CARTESIAN_POINT('',(42.910507388052977,21.655678595298298,158.206445260882160));
#219=CARTESIAN_POINT('',(43.106524818188987,21.637332142053310,158.199999999999110));
#220=CARTESIAN_POINT('',(43.486574669592002,21.637332142053310,158.199999999999110));
#221=CARTESIAN_POINT('',(43.682592099728012,21.655678595298298,158.206445260882160));
#222=CARTESIAN_POINT('',(44.071516628263346,21.732385860032281,158.232704635262420));
#223=CARTESIAN_POINT('',(44.264429085182712,21.790725142958223,158.252502264982750));
#224=CARTESIAN_POINT('',(44.633561089525763,21.944311092144119,158.302315712820080));
#225=CARTESIAN_POINT('',(44.810103316267941,22.039679743177828,158.332333877200600));
#226=CARTESIAN_POINT('',(45.136131594036684,22.259395848299846,158.397000656020310));
#227=CARTESIAN_POINT('',(45.285618072266928,22.383759783310467,158.431591105844890));
#228=CARTESIAN_POINT('',(45.550195877765198,22.648337588808715,158.498789642532330));
#229=CARTESIAN_POINT('',(45.674568802145295,22.797859096904773,158.533817169401090));
#230=CARTESIAN_POINT('',(45.894252936833922,23.123867955619545,158.600061493895170));
#231=CARTESIAN_POINT('',(45.989583860618609,23.300355676206919,158.631211077043280));
#232=CARTESIAN_POINT('',(46.143127361983005,23.669378711472888,158.683328796177020));
#233=CARTESIAN_POINT('',(46.201461707443983,23.862238326620286,158.704281243825560));
#234=CARTESIAN_POINT('',(46.278184265058485,24.251146282639127,158.732162657524730));
#235=CARTESIAN_POINT('',(46.296549743890495,24.447201213324718,158.739062248150900));
#236=CARTESIAN_POINT('',(46.296549743890495,24.637332142053310,158.739062248150900));
#237=B_SPLINE_CURVE_WITH_KNOTS('',3,(#203,#204,#205,#206,#207,#208,#209,#210,#211,#212,#213,#214,#215,#216,#217,#218,#219,#220,#221,#222,#223,#224,#225,#226,#227,#228,#229,#230,#231,#232,#233,#234,#235,#236),.UNSPECIFIED.,.F.,.U.,(4,2,2,2,2,2,2,2,2,2,2,2,2,2,2,2,4),(0.0,0.570392786185822,1.140785572371643,1.711178358557465,2.281571144743286,2.851645921847811,3.421720698952336,3.991795476056861,4.561870253161386,5.131945030265911,5.702019807370435,6.272094584474958,6.842169361579483,7.412562147765305,7.982954933951127,8.553347720136950,9.123740506322772),.UNSPECIFIED.);
#238=EDGE_CURVE('',#150,#133,#237,.T.);
#239=ORIENTED_EDGE('',*,*,#238,.F.);
#240=ORIENTED_EDGE('',*,*,#155,.F.);
#241=CARTESIAN_POINT('',(43.296549743890495,24.637332142053310,168.899999999999150));
#242=DIRECTION('',(0.0,0.0,-1.0));
#243=DIRECTION('',(1.0,0.0,0.0));
#244=AXIS2_PLACEMENT_3D('',#241,#242,#243);
#245=CIRCLE('',#244,3.0);
#246=EDGE_CURVE('',#131,#141,#245,.T.);
#247=ORIENTED_EDGE('',*,*,#246,.F.);
#248=EDGE_LOOP('',(#202,#239,#240,#247));
#249=FACE_OUTER_BOUND('',#248,.T.);
#250=ADVANCED_FACE('',(#249),#201,.F.);
#251=CARTESIAN_POINT('',(47.296549743890495,11.637332142053310,168.899999999999150));
#252=DIRECTION('',(0.0,0.0,1.0));
#253=DIRECTION('',(-1.0,0.0,0.0));
#254=AXIS2_PLACEMENT_3D('',#251,#252,#253);
#255=PLANE('',#254);
#256=CARTESIAN_POINT('',(47.296549743890495,31.637332142053765,168.899999999999380));
#257=VERTEX_POINT('',#256);
#258=CARTESIAN_POINT('',(39.296549743890495,31.637332142053765,168.899999999999380));
#259=VERTEX_POINT('',#258);
#260=CARTESIAN_POINT('',(47.296549743890495,31.637332142053765,168.899999999999380));
#261=DIRECTION('',(-1.0,0.0,0.0));
#262=VECTOR('',#261,8.0);
#263=LINE('',#260,#262);
#264=EDGE_CURVE('',#257,#259,#263,.T.);
#265=ORIENTED_EDGE('',*,*,#264,.T.);
#266=CARTESIAN_POINT('',(39.296549743890495,11.637332142053310,168.899999999999150));
#267=VERTEX_POINT('',#266);
#268=CARTESIAN_POINT('',(39.296549743890495,11.637332142053310,168.899999999999150));
#269=DIRECTION('',(0.0,1.0,0.0));
#270=VECTOR('',#269,20.000000000000455);
#271=LINE('',#268,#270);
#272=EDGE_CURVE('',#267,#259,#271,.T.);
#273=ORIENTED_EDGE('',*,*,#272,.F.);
#274=CARTESIAN_POINT('',(47.296549743890495,11.637332142053310,168.899999999999150));
#275=VERTEX_POINT('',#274);
#276=CARTESIAN_POINT('',(39.296549743890495,11.637332142053310,168.899999999999150));
#277=DIRECTION('',(1.0,0.0,0.0));
#278=VECTOR('',#277,8.0);
#279=LINE('',#276,#278);
#280=EDGE_CURVE('',#267,#275,#279,.T.);
#281=ORIENTED_EDGE('',*,*,#280,.T.);
#282=CARTESIAN_POINT('',(47.296549743890495,11.637332142053310,168.899999999999150));
#283=DIRECTION('',(0.0,1.0,0.0));
#284=VECTOR('',#283,20.000000000000455);
#285=LINE('',#282,#284);
#286=EDGE_CURVE('',#275,#257,#285,.T.);
#287=ORIENTED_EDGE('',*,*,#286,.T.);
#288=EDGE_LOOP('',(#265,#273,#281,#287));
#289=FACE_OUTER_BOUND('',#288,.T.);
#290=ORIENTED_EDGE('',*,*,#246,.T.);
#291=ORIENTED_EDGE('',*,*,#147,.T.);
#292=EDGE_LOOP('',(#290,#291));
#293=FACE_BOUND('',#292,.T.);
#294=ADVANCED_FACE('',(#289,#293),#255,.T.);
#295=CARTESIAN_POINT('',(39.296549743890495,11.637332142053310,168.899999999999150));
#296=DIRECTION('',(-1.0,0.0,0.0));
#297=DIRECTION('',(0.0,0.0,-1.0));
#298=AXIS2_PLACEMENT_3D('',#295,#296,#297);
#299=PLANE('',#298);
#300=CARTESIAN_POINT('',(39.296549743890495,31.637332142053765,165.399999999999610));
#301=VERTEX_POINT('',#300);
#302=CARTESIAN_POINT('',(39.296549743890495,31.637332142053765,168.899999999999380));
#303=DIRECTION('',(0.0,0.0,-1.0));
#304=VECTOR('',#303,3.499999999999773);
#305=LINE('',#302,#304);
#306=EDGE_CURVE('',#259,#301,#305,.T.);
#307=ORIENTED_EDGE('',*,*,#306,.T.);
#308=CARTESIAN_POINT('',(39.296549743890495,11.637332142053310,165.399999999999380));
#309=VERTEX_POINT('',#308);
#310=CARTESIAN_POINT('',(39.296549743890495,11.637332142053310,165.399999999999380));
#311=DIRECTION('',(0.0,1.0,0.0));
#312=VECTOR('',#311,20.000000000000455);
#313=LINE('',#310,#312);
#314=EDGE_CURVE('',#309,#301,#313,.T.);
#315=ORIENTED_EDGE('',*,*,#314,.F.);
#316=CARTESIAN_POINT('',(39.296549743890495,11.637332142053310,165.399999999999380));
#317=DIRECTION('',(0.0,0.0,1.0));
#318=VECTOR('',#317,3.499999999999773);
#319=LINE('',#316,#318);
#320=EDGE_CURVE('',#309,#267,#319,.T.);
#321=ORIENTED_EDGE('',*,*,#320,.T.);
#322=ORIENTED_EDGE('',*,*,#272,.T.);
#323=EDGE_LOOP('',(#307,#315,#321,#322));
#324=FACE_OUTER_BOUND('',#323,.T.);
#325=ADVANCED_FACE('',(#324),#299,.T.);
#326=CARTESIAN_POINT('',(39.296549743890495,11.637332142053310,165.399999999999380));
#327=DIRECTION('',(0.0,0.0,1.0));
#328=DIRECTION('',(-1.0,0.0,0.0));
#329=AXIS2_PLACEMENT_3D('',#326,#327,#328);
#330=PLANE('',#329);
#331=CARTESIAN_POINT('',(34.796549743890495,31.637332142053765,165.399999999999610));
#332=VERTEX_POINT('',#331);
#333=CARTESIAN_POINT('',(39.296549743890495,31.637332142053765,165.399999999999610));
#334=DIRECTION('',(-1.0,0.0,0.0));
#335=VECTOR('',#334,4.500000000000000);
#336=LINE('',#333,#335);
#337=EDGE_CURVE('',#301,#332,#336,.T.);
#338=ORIENTED_EDGE('',*,*,#337,.T.);
#339=CARTESIAN_POINT('',(34.796549743890495,11.637332142053310,165.399999999999380));
#340=VERTEX_POINT('',#339);
#341=CARTESIAN_POINT('',(34.796549743890495,11.637332142053310,165.399999999999380));
#342=DIRECTION('',(0.0,1.0,0.0));
#343=VECTOR('',#342,20.000000000000455);
#344=LINE('',#341,#343);
#345=EDGE_CURVE('',#340,#332,#344,.T.);
#346=ORIENTED_EDGE('',*,*,#345,.F.);
#347=CARTESIAN_POINT('',(34.796549743890495,11.637332142053310,165.399999999999380));
#348=DIRECTION('',(1.0,0.0,0.0));
#349=VECTOR('',#348,4.500000000000000);
#350=LINE('',#347,#349);
#351=EDGE_CURVE('',#340,#309,#350,.T.);
#352=ORIENTED_EDGE('',*,*,#351,.T.);
#353=ORIENTED_EDGE('',*,*,#314,.T.);
#354=EDGE_LOOP('',(#338,#346,#352,#353));
#355=FACE_OUTER_BOUND('',#354,.T.);
#356=ADVANCED_FACE('',(#355),#330,.T.);
#357=CARTESIAN_POINT('',(43.296549743890495,11.637332142053310,166.817361111110100));
#358=DIRECTION('',(-2.901655E-016,1.0,5.462297E-015));
#359=DIRECTION('',(0.0,0.0,-1.0));
#360=AXIS2_PLACEMENT_3D('',#357,#358,#359);
#361=CYLINDRICAL_SURFACE('',#360,8.617361111111048);
#362=CARTESIAN_POINT('',(51.796549743890495,31.637332142053765,165.399999999999610));
#363=VERTEX_POINT('',#362);
#364=CARTESIAN_POINT('',(43.296549743890495,31.637332142053310,166.817361111110330));
#365=DIRECTION('',(0.0,-1.0,0.0));
#366=DIRECTION('',(0.0,0.0,-1.0));
#367=AXIS2_PLACEMENT_3D('',#364,#365,#366);
#368=CIRCLE('',#367,8.617361111111048);
#369=EDGE_CURVE('',#332,#363,#368,.T.);
#370=ORIENTED_EDGE('',*,*,#369,.T.);
#371=CARTESIAN_POINT('',(51.796549743890495,11.637332142053310,165.399999999999380));
#372=VERTEX_POINT('',#371);
#373=CARTESIAN_POINT('',(51.796549743890495,11.637332142053310,165.399999999999380));
#374=DIRECTION('',(0.0,1.0,0.0));
#375=VECTOR('',#374,20.000000000000455);
#376=LINE('',#373,#375);
#377=EDGE_CURVE('',#372,#363,#376,.T.);
#378=ORIENTED_EDGE('',*,*,#377,.F.);
#379=CARTESIAN_POINT('',(43.296549743890495,11.637332142053310,166.817361111110100));
#380=DIRECTION('',(0.0,1.0,0.0));
#381=DIRECTION('',(0.0,0.0,-1.0));
#382=AXIS2_PLACEMENT_3D('',#379,#380,#381);
#383=CIRCLE('',#382,8.617361111111048);
#384=EDGE_CURVE('',#372,#340,#383,.T.);
#385=ORIENTED_EDGE('',*,*,#384,.T.);
#386=ORIENTED_EDGE('',*,*,#345,.T.);
#387=EDGE_LOOP('',(#370,#378,#385,#386));
#388=FACE_OUTER_BOUND('',#387,.T.);
#389=ORIENTED_EDGE('',*,*,#238,.T.);
#390=ORIENTED_EDGE('',*,*,#192,.T.);
#391=EDGE_LOOP('',(#389,#390));
#392=FACE_BOUND('',#391,.T.);
#393=ADVANCED_FACE('',(#388,#392),#361,.T.);
#394=CARTESIAN_POINT('',(51.796549743890495,11.637332142053310,165.399999999999380));
#395=DIRECTION('',(0.0,0.0,1.0));
#396=DIRECTION('',(-1.0,0.0,0.0));
#397=AXIS2_PLACEMENT_3D('',#394,#395,#396);
#398=PLANE('',#397);
#399=CARTESIAN_POINT('',(47.296549743890495,31.637332142053765,165.399999999999610));
#400=VERTEX_POINT('',#399);
#401=CARTESIAN_POINT('',(51.796549743890495,31.637332142053765,165.399999999999610));
#402=DIRECTION('',(-1.0,0.0,0.0));
#403=VECTOR('',#402,4.500000000000000);
#404=LINE('',#401,#403);
#405=EDGE_CURVE('',#363,#400,#404,.T.);
#406=ORIENTED_EDGE('',*,*,#405,.T.);
#407=CARTESIAN_POINT('',(47.296549743890495,11.637332142053310,165.399999999999380));
#408=VERTEX_POINT('',#407);
#409=CARTESIAN_POINT('',(47.296549743890495,11.637332142053310,165.399999999999380));
#410=DIRECTION('',(0.0,1.0,0.0));
#411=VECTOR('',#410,20.000000000000455);
#412=LINE('',#409,#411);
#413=EDGE_CURVE('',#408,#400,#412,.T.);
#414=ORIENTED_EDGE('',*,*,#413,.F.);
#415=CARTESIAN_POINT('',(47.296549743890495,11.637332142053310,165.399999999999380));
#416=DIRECTION('',(1.0,0.0,0.0));
#417=VECTOR('',#416,4.500000000000000);
#418=LINE('',#415,#417);
#419=EDGE_CURVE('',#408,#372,#418,.T.);
#420=ORIENTED_EDGE('',*,*,#419,.T.);
#421=ORIENTED_EDGE('',*,*,#377,.T.);
#422=EDGE_LOOP('',(#406,#414,#420,#421));
#423=FACE_OUTER_BOUND('',#422,.T.);
#424=ADVANCED_FACE('',(#423),#398,.T.);
#425=CARTESIAN_POINT('',(47.296549743890495,11.637332142053310,165.399999999999380));
#426=DIRECTION('',(1.0,0.0,0.0));
#427=DIRECTION('',(0.0,0.0,1.0));
#428=AXIS2_PLACEMENT_3D('',#425,#426,#427);
#429=PLANE('',#428);
#430=CARTESIAN_POINT('',(47.296549743890495,31.637332142053765,165.399999999999610));
#431=DIRECTION('',(0.0,0.0,1.0));
#432=VECTOR('',#431,3.499999999999773);
#433=LINE('',#430,#432);
#434=EDGE_CURVE('',#400,#257,#433,.T.);
#435=ORIENTED_EDGE('',*,*,#434,.T.);
#436=ORIENTED_EDGE('',*,*,#286,.F.);
#437=CARTESIAN_POINT('',(47.296549743890495,11.637332142053310,168.899999999999150));
#438=DIRECTION('',(0.0,0.0,-1.0));
#439=VECTOR('',#438,3.499999999999773);
#440=LINE('',#437,#439);
#441=EDGE_CURVE('',#275,#408,#440,.T.);
#442=ORIENTED_EDGE('',*,*,#441,.T.);
#443=ORIENTED_EDGE('',*,*,#413,.T.);
#444=EDGE_LOOP('',(#435,#436,#442,#443));
#445=FACE_OUTER_BOUND('',#444,.T.);
#446=ADVANCED_FACE('',(#445),#429,.T.);
#447=CARTESIAN_POINT('',(43.296549743890495,31.637332142053765,164.138493801297470));
#448=DIRECTION('',(0.0,-1.0,0.0));
#449=DIRECTION('',(0.0,0.0,1.0));
#450=AXIS2_PLACEMENT_3D('',#447,#448,#449);
#451=PLANE('',#450);
#452=ORIENTED_EDGE('',*,*,#264,.F.);
#453=ORIENTED_EDGE('',*,*,#434,.F.);
#454=ORIENTED_EDGE('',*,*,#405,.F.);
#455=ORIENTED_EDGE('',*,*,#369,.F.);
#456=ORIENTED_EDGE('',*,*,#337,.F.);
#457=ORIENTED_EDGE('',*,*,#306,.F.);
#458=EDGE_LOOP('',(#452,#453,#454,#455,#456,#457));
#459=FACE_OUTER_BOUND('',#458,.T.);
#460=ADVANCED_FACE('',(#459),#451,.F.);
#461=CARTESIAN_POINT('',(43.296549743890495,11.637332142053765,164.138493801297240));
#462=DIRECTION('',(0.0,-1.0,0.0));
#463=DIRECTION('',(0.0,0.0,1.0));
#464=AXIS2_PLACEMENT_3D('',#461,#462,#463);
#465=PLANE('',#464);
#466=ORIENTED_EDGE('',*,*,#441,.F.);
#467=ORIENTED_EDGE('',*,*,#280,.F.);
#468=ORIENTED_EDGE('',*,*,#320,.F.);
#469=ORIENTED_EDGE('',*,*,#351,.F.);
#470=ORIENTED_EDGE('',*,*,#384,.F.);
#471=ORIENTED_EDGE('',*,*,#419,.F.);
#472=EDGE_LOOP('',(#466,#467,#468,#469,#470,#471));
#473=FACE_OUTER_BOUND('',#472,.T.);
#474=ADVANCED_FACE('',(#473),#465,.T.);
#475=CLOSED_SHELL('',(#196,#250,#294,#325,#356,#393,#424,#446,#460,#474));
#476=MANIFOLD_SOLID_BREP('2E7E',#475);
#477=ADVANCED_BREP_SHAPE_REPRESENTATION('ABSR1',(#476),#28);
#478=SHAPE_REPRESENTATION_RELATIONSHIP('SRRPL1',' ',#477,#122);
ENDSEC;
END-ISO-10303-21;
