ISO-10303-21;
HEADER;
/****************************************************************
 * Generated by software with PDE/Lib inside                    *
 * PDElib Version v51a, created 12/06/2005 Tue                  *
 * International Technegroup Inc. (www.iti-oh.com)              *
 ****************************************************************/
FILE_DESCRIPTION((''),'2;1');
FILE_NAME('SZ0910N.stp','2009-07-27T13:52:52',(''),(''),'Mechanical Desktop 2007','Mechanical Desktop 2007',', , ');
FILE_SCHEMA(('CONFIG_CONTROL_DESIGN'));
ENDSEC;
DATA;
#8=(NAMED_UNIT(*)PLANE_ANGLE_UNIT()SI_UNIT($,.RADIAN.));
#9=DIMENSIONAL_EXPONENTS(0.0,0.0,0.0,0.0,0.0,0.0,0.0);
#10=PLANE_ANGLE_MEASURE_WITH_UNIT(PLANE_ANGLE_MEASURE(0.017453292500000),#8);
#14=(CONVERSION_BASED_UNIT('DEGREE',#10)NAMED_UNIT(#9)PLANE_ANGLE_UNIT());
#18=(NAMED_UNIT(*)SI_UNIT($,.STERADIAN.)SOLID_ANGLE_UNIT());
#22=(LENGTH_UNIT()NAMED_UNIT(*)SI_UNIT(.MILLI.,.METRE.));
#23=UNCERTAINTY_MEASURE_WITH_UNIT(LENGTH_MEASURE(0.000001000000000),#22,'DISTANCE_ACCURACY_VALUE','');
#28=(GEOMETRIC_REPRESENTATION_CONTEXT(3)GLOBAL_UNCERTAINTY_ASSIGNED_CONTEXT((#23))GLOBAL_UNIT_ASSIGNED_CONTEXT((#14,#18,#22))REPRESENTATION_CONTEXT('None','None'));
#29=APPLICATION_CONTEXT('CONFIGURATION CONTROLLED 3D DESIGNS OF MECHANICAL PARTS AND ASSEMBLIES');
#30=APPLICATION_PROTOCOL_DEFINITION('INTERNATIONAL STANDARD','config_control_design',1995,#29);
#31=MECHANICAL_CONTEXT('3D Mechanical Parts',#29,'mechanical');
#32=PRODUCT('SZ0910N','SZ0910N',' ',(#31));
#33=PRODUCT_RELATED_PRODUCT_CATEGORY('detail',$,(#32));
#34=PRODUCT_CATEGORY('part',$);
#35=PRODUCT_CATEGORY_RELATIONSHIP('None','None',#34,#33);
#36=PERSON('1','Design','Joe',$,$,$);
#37=ORGANIZATION($,'None','None');
#38=PERSON_AND_ORGANIZATION(#36,#37);
#39=PERSON_AND_ORGANIZATION_ROLE('design_owner');
#40=CC_DESIGN_PERSON_AND_ORGANIZATION_ASSIGNMENT(#38,#39,(#32));
#41=PRODUCT_DEFINITION_FORMATION_WITH_SPECIFIED_SOURCE('None','None',#32,.NOT_KNOWN.);
#42=PERSON('2','Creator','Joe',$,$,$);
#43=ORGANIZATION($,'None','None');
#44=PERSON_AND_ORGANIZATION(#42,#43);
#45=PERSON_AND_ORGANIZATION_ROLE('creator');
#46=CC_DESIGN_PERSON_AND_ORGANIZATION_ASSIGNMENT(#44,#45,(#41));
#47=PERSON('3','Supplier','Joe',$,$,$);
#48=ORGANIZATION($,'None','None');
#49=PERSON_AND_ORGANIZATION(#47,#48);
#50=PERSON_AND_ORGANIZATION_ROLE('design_supplier');
#51=CC_DESIGN_PERSON_AND_ORGANIZATION_ASSIGNMENT(#49,#50,(#41));
#52=APPROVAL_STATUS('approved');
#53=APPROVAL(#52,'None');
#54=PERSON('4','Approver','Joe',$,$,$);
#55=ORGANIZATION($,'None','None');
#56=PERSON_AND_ORGANIZATION(#54,#55);
#57=APPROVAL_ROLE('approver');
#58=APPROVAL_PERSON_ORGANIZATION(#56,#53,#57);
#59=COORDINATED_UNIVERSAL_TIME_OFFSET(8,$,.BEHIND.);
#60=CALENDAR_DATE(1996,29,5);
#61=LOCAL_TIME(12,0,0.0,#59);
#62=DATE_AND_TIME(#60,#61);
#63=APPROVAL_DATE_TIME(#62,#53);
#64=CC_DESIGN_APPROVAL(#53,(#41));
#65=SECURITY_CLASSIFICATION_LEVEL('unclassified');
#66=SECURITY_CLASSIFICATION('security','None',#65);
#67=CC_DESIGN_SECURITY_CLASSIFICATION(#66,(#41));
#68=APPROVAL_STATUS('approved');
#69=APPROVAL(#68,'None');
#70=PERSON('5','Approver','Joe',$,$,$);
#71=ORGANIZATION($,'None','None');
#72=PERSON_AND_ORGANIZATION(#70,#71);
#73=APPROVAL_ROLE('approver');
#74=APPROVAL_PERSON_ORGANIZATION(#72,#69,#73);
#75=COORDINATED_UNIVERSAL_TIME_OFFSET(8,$,.BEHIND.);
#76=CALENDAR_DATE(1996,29,5);
#77=LOCAL_TIME(12,0,0.0,#75);
#78=DATE_AND_TIME(#76,#77);
#79=APPROVAL_DATE_TIME(#78,#69);
#80=CC_DESIGN_APPROVAL(#69,(#66));
#81=PERSON('6','Classifier','Joe',$,$,$);
#82=ORGANIZATION($,'None','None');
#83=PERSON_AND_ORGANIZATION(#81,#82);
#84=PERSON_AND_ORGANIZATION_ROLE('classification_officer');
#85=CC_DESIGN_PERSON_AND_ORGANIZATION_ASSIGNMENT(#83,#84,(#66));
#86=COORDINATED_UNIVERSAL_TIME_OFFSET(8,$,.BEHIND.);
#87=CALENDAR_DATE(1996,29,5);
#88=LOCAL_TIME(12,0,0.0,#86);
#89=DATE_AND_TIME(#87,#88);
#90=DATE_TIME_ROLE('classification_date');
#91=CC_DESIGN_DATE_AND_TIME_ASSIGNMENT(#89,#90,(#66));
#92=DESIGN_CONTEXT('Design Context',#29,'design');
#93=PRODUCT_DEFINITION('None','None',#41,#92);
#94=PERSON('7','Creator','Joe',$,$,$);
#95=ORGANIZATION($,'None','None');
#96=PERSON_AND_ORGANIZATION(#94,#95);
#97=PERSON_AND_ORGANIZATION_ROLE('creator');
#98=CC_DESIGN_PERSON_AND_ORGANIZATION_ASSIGNMENT(#96,#97,(#93));
#99=COORDINATED_UNIVERSAL_TIME_OFFSET(8,$,.BEHIND.);
#100=CALENDAR_DATE(1996,29,5);
#101=LOCAL_TIME(12,0,0.0,#99);
#102=DATE_AND_TIME(#100,#101);
#103=DATE_TIME_ROLE('creation_date');
#104=CC_DESIGN_DATE_AND_TIME_ASSIGNMENT(#102,#103,(#93));
#105=APPROVAL_STATUS('approved');
#106=APPROVAL(#105,'None');
#107=PERSON('8','Approver','Joe',$,$,$);
#108=ORGANIZATION($,'None','None');
#109=PERSON_AND_ORGANIZATION(#107,#108);
#110=APPROVAL_ROLE('approver');
#111=APPROVAL_PERSON_ORGANIZATION(#109,#106,#110);
#112=COORDINATED_UNIVERSAL_TIME_OFFSET(8,$,.BEHIND.);
#113=CALENDAR_DATE(1996,29,5);
#114=LOCAL_TIME(12,0,0.0,#112);
#115=DATE_AND_TIME(#113,#114);
#116=APPROVAL_DATE_TIME(#115,#106);
#117=CC_DESIGN_APPROVAL(#106,(#93));
#118=CARTESIAN_POINT('NONE',(0.0,0.0,0.0));
#119=DIRECTION('NONE',(0.0,0.0,1.0));
#120=DIRECTION('NONE',(1.0,0.0,0.0));
#121=AXIS2_PLACEMENT_3D('NONE',#118,#119,#120);
#122=SHAPE_REPRESENTATION('SR1',(#121),#28);
#123=PRODUCT_DEFINITION_SHAPE('PDS1','Test Part',#93);
#124=SHAPE_DEFINITION_REPRESENTATION(#123,#122);
#125=CARTESIAN_POINT('',(54.669905660283007,-1.004237E-014,12.500000000000000));
#126=DIRECTION('',(1.0,-1.836910E-016,0.0));
#127=DIRECTION('',(0.0,0.0,-1.0));
#128=AXIS2_PLACEMENT_3D('',#125,#126,#127);
#129=CYLINDRICAL_SURFACE('',#128,3.250000000000000);
#130=CARTESIAN_POINT('',(7.500000000000000,-1.377682E-015,9.250000000000000));
#131=VERTEX_POINT('',#130);
#132=CARTESIAN_POINT('',(12.500000000000000,-2.296137E-015,9.250000000000000));
#133=VERTEX_POINT('',#132);
#134=CARTESIAN_POINT('',(7.500000000000000,-1.377682E-015,9.250000000000000));
#135=DIRECTION('',(1.0,0.0,0.0));
#136=VECTOR('',#135,5.0);
#137=LINE('',#134,#136);
#138=EDGE_CURVE('',#131,#133,#137,.T.);
#139=ORIENTED_EDGE('',*,*,#138,.F.);
#140=CARTESIAN_POINT('',(7.500000000000000,-1.775679E-015,15.750000000000000));
#141=VERTEX_POINT('',#140);
#142=CARTESIAN_POINT('',(7.500000000000000,-1.377682E-015,12.500000000000000));
#143=DIRECTION('',(1.0,0.0,0.0));
#144=DIRECTION('',(0.0,0.0,-1.0));
#145=AXIS2_PLACEMENT_3D('',#142,#143,#144);
#146=CIRCLE('',#145,3.250000000000000);
#147=EDGE_CURVE('',#141,#131,#146,.T.);
#148=ORIENTED_EDGE('',*,*,#147,.F.);
#149=CARTESIAN_POINT('',(12.500000000000000,-3.071785E-014,15.750000000000000));
#150=VERTEX_POINT('',#149);
#151=CARTESIAN_POINT('',(7.500000000000000,-1.775679E-015,15.750000000000000));
#152=DIRECTION('',(1.0,0.0,0.0));
#153=VECTOR('',#152,5.0);
#154=LINE('',#151,#153);
#155=EDGE_CURVE('',#141,#150,#154,.T.);
#156=ORIENTED_EDGE('',*,*,#155,.T.);
#157=CARTESIAN_POINT('',(12.500000000000000,-2.296137E-015,12.500000000000000));
#158=DIRECTION('',(-1.0,0.0,0.0));
#159=DIRECTION('',(0.0,0.0,-1.0));
#160=AXIS2_PLACEMENT_3D('',#157,#158,#159);
#161=CIRCLE('',#160,3.250000000000000);
#162=EDGE_CURVE('',#133,#150,#161,.T.);
#163=ORIENTED_EDGE('',*,*,#162,.F.);
#164=EDGE_LOOP('',(#139,#148,#156,#163));
#165=FACE_OUTER_BOUND('',#164,.T.);
#166=ADVANCED_FACE('',(#165),#129,.F.);
#167=CARTESIAN_POINT('',(54.669905660283007,-1.004237E-014,12.500000000000000));
#168=DIRECTION('',(1.0,-1.836910E-016,0.0));
#169=DIRECTION('',(0.0,0.0,-1.0));
#170=AXIS2_PLACEMENT_3D('',#167,#168,#169);
#171=CYLINDRICAL_SURFACE('',#170,3.250000000000000);
#172=ORIENTED_EDGE('',*,*,#138,.T.);
#173=CARTESIAN_POINT('',(12.500000000000000,-2.296137E-015,12.500000000000000));
#174=DIRECTION('',(-1.0,0.0,0.0));
#175=DIRECTION('',(0.0,0.0,-1.0));
#176=AXIS2_PLACEMENT_3D('',#173,#174,#175);
#177=CIRCLE('',#176,3.250000000000000);
#178=EDGE_CURVE('',#150,#133,#177,.T.);
#179=ORIENTED_EDGE('',*,*,#178,.F.);
#180=ORIENTED_EDGE('',*,*,#155,.F.);
#181=CARTESIAN_POINT('',(7.500000000000000,-1.377682E-015,12.500000000000000));
#182=DIRECTION('',(1.0,0.0,0.0));
#183=DIRECTION('',(0.0,0.0,-1.0));
#184=AXIS2_PLACEMENT_3D('',#181,#182,#183);
#185=CIRCLE('',#184,3.250000000000000);
#186=EDGE_CURVE('',#131,#141,#185,.T.);
#187=ORIENTED_EDGE('',*,*,#186,.F.);
#188=EDGE_LOOP('',(#172,#179,#180,#187));
#189=FACE_OUTER_BOUND('',#188,.T.);
#190=ADVANCED_FACE('',(#189),#171,.F.);
#191=CARTESIAN_POINT('',(7.499999999999998,-7.500000000000002,5.0));
#192=DIRECTION('',(-1.0,0.0,0.0));
#193=DIRECTION('',(0.0,0.0,-1.0));
#194=AXIS2_PLACEMENT_3D('',#191,#192,#193);
#195=PLANE('',#194);
#196=CARTESIAN_POINT('',(7.499999999999998,-7.500000000000002,20.0));
#197=VERTEX_POINT('',#196);
#198=CARTESIAN_POINT('',(7.500000000000002,7.499999999999998,20.0));
#199=VERTEX_POINT('',#198);
#200=CARTESIAN_POINT('',(7.499999999999998,-7.500000000000002,20.0));
#201=DIRECTION('',(0.0,1.0,0.0));
#202=VECTOR('',#201,15.0);
#203=LINE('',#200,#202);
#204=EDGE_CURVE('',#197,#199,#203,.T.);
#205=ORIENTED_EDGE('',*,*,#204,.T.);
#206=CARTESIAN_POINT('',(7.500000000000002,7.499999999999998,5.0));
#207=VERTEX_POINT('',#206);
#208=CARTESIAN_POINT('',(7.500000000000002,7.499999999999998,5.0));
#209=DIRECTION('',(0.0,0.0,1.0));
#210=VECTOR('',#209,15.0);
#211=LINE('',#208,#210);
#212=EDGE_CURVE('',#207,#199,#211,.T.);
#213=ORIENTED_EDGE('',*,*,#212,.F.);
#214=CARTESIAN_POINT('',(7.499999999999998,-7.500000000000002,5.0));
#215=VERTEX_POINT('',#214);
#216=CARTESIAN_POINT('',(7.499999999999998,-7.500000000000002,5.0));
#217=DIRECTION('',(0.0,1.0,0.0));
#218=VECTOR('',#217,15.0);
#219=LINE('',#216,#218);
#220=EDGE_CURVE('',#215,#207,#219,.T.);
#221=ORIENTED_EDGE('',*,*,#220,.F.);
#222=CARTESIAN_POINT('',(7.499999999999998,-7.500000000000002,5.0));
#223=DIRECTION('',(0.0,0.0,1.0));
#224=VECTOR('',#223,15.0);
#225=LINE('',#222,#224);
#226=EDGE_CURVE('',#215,#197,#225,.T.);
#227=ORIENTED_EDGE('',*,*,#226,.T.);
#228=EDGE_LOOP('',(#205,#213,#221,#227));
#229=FACE_OUTER_BOUND('',#228,.T.);
#230=ORIENTED_EDGE('',*,*,#186,.T.);
#231=ORIENTED_EDGE('',*,*,#147,.T.);
#232=EDGE_LOOP('',(#230,#231));
#233=FACE_BOUND('',#232,.T.);
#234=ADVANCED_FACE('',(#229,#233),#195,.T.);
#235=CARTESIAN_POINT('',(12.500000000000002,7.499999999999997,20.0));
#236=DIRECTION('',(0.0,0.0,-1.0));
#237=DIRECTION('',(0.0,1.0,0.0));
#238=AXIS2_PLACEMENT_3D('',#235,#236,#237);
#239=PLANE('',#238);
#240=CARTESIAN_POINT('',(12.500000000000002,7.499999999999997,20.0));
#241=VERTEX_POINT('',#240);
#242=CARTESIAN_POINT('',(12.499999999999998,-7.500000000000003,20.0));
#243=VERTEX_POINT('',#242);
#244=CARTESIAN_POINT('',(12.500000000000002,7.499999999999997,20.0));
#245=DIRECTION('',(0.0,-1.0,0.0));
#246=VECTOR('',#245,15.0);
#247=LINE('',#244,#246);
#248=EDGE_CURVE('',#241,#243,#247,.T.);
#249=ORIENTED_EDGE('',*,*,#248,.F.);
#250=CARTESIAN_POINT('',(7.500000000000002,7.499999999999998,20.0));
#251=DIRECTION('',(1.0,0.0,0.0));
#252=VECTOR('',#251,5.0);
#253=LINE('',#250,#252);
#254=EDGE_CURVE('',#199,#241,#253,.T.);
#255=ORIENTED_EDGE('',*,*,#254,.F.);
#256=ORIENTED_EDGE('',*,*,#204,.F.);
#257=CARTESIAN_POINT('',(12.499999999999998,-7.500000000000003,20.0));
#258=DIRECTION('',(-1.0,0.0,0.0));
#259=VECTOR('',#258,5.0);
#260=LINE('',#257,#259);
#261=EDGE_CURVE('',#243,#197,#260,.T.);
#262=ORIENTED_EDGE('',*,*,#261,.F.);
#263=EDGE_LOOP('',(#249,#255,#256,#262));
#264=FACE_OUTER_BOUND('',#263,.T.);
#265=ADVANCED_FACE('',(#264),#239,.F.);
#266=CARTESIAN_POINT('',(12.500000000000002,7.499999999999997,5.0));
#267=DIRECTION('',(0.0,0.0,-1.0));
#268=DIRECTION('',(0.0,1.0,0.0));
#269=AXIS2_PLACEMENT_3D('',#266,#267,#268);
#270=PLANE('',#269);
#271=ORIENTED_EDGE('',*,*,#220,.T.);
#272=CARTESIAN_POINT('',(-27.500000000000000,7.500000000000005,5.0));
#273=VERTEX_POINT('',#272);
#274=CARTESIAN_POINT('',(-27.500000000000000,7.500000000000005,5.0));
#275=DIRECTION('',(1.0,0.0,0.0));
#276=VECTOR('',#275,35.0);
#277=LINE('',#274,#276);
#278=EDGE_CURVE('',#273,#207,#277,.T.);
#279=ORIENTED_EDGE('',*,*,#278,.F.);
#280=CARTESIAN_POINT('',(-27.500000000000000,-7.499999999999995,5.0));
#281=VERTEX_POINT('',#280);
#282=CARTESIAN_POINT('',(-27.500000000000000,-7.499999999999995,5.0));
#283=DIRECTION('',(0.0,1.0,0.0));
#284=VECTOR('',#283,15.0);
#285=LINE('',#282,#284);
#286=EDGE_CURVE('',#281,#273,#285,.T.);
#287=ORIENTED_EDGE('',*,*,#286,.F.);
#288=CARTESIAN_POINT('',(7.499999999999998,-7.500000000000002,5.0));
#289=DIRECTION('',(-1.0,0.0,0.0));
#290=VECTOR('',#289,35.0);
#291=LINE('',#288,#290);
#292=EDGE_CURVE('',#215,#281,#291,.T.);
#293=ORIENTED_EDGE('',*,*,#292,.F.);
#294=EDGE_LOOP('',(#271,#279,#287,#293));
#295=FACE_OUTER_BOUND('',#294,.T.);
#296=CARTESIAN_POINT('',(-20.0,3.250000000000004,5.0));
#297=VERTEX_POINT('',#296);
#298=CARTESIAN_POINT('',(5.969956E-016,3.250000000000000,5.0));
#299=VERTEX_POINT('',#298);
#300=CARTESIAN_POINT('',(-20.0,3.250000000000004,5.0));
#301=DIRECTION('',(1.0,0.0,0.0));
#302=VECTOR('',#301,20.0);
#303=LINE('',#300,#302);
#304=EDGE_CURVE('',#297,#299,#303,.T.);
#305=ORIENTED_EDGE('',*,*,#304,.T.);
#306=CARTESIAN_POINT('',(-5.969956E-016,-3.250000000000000,5.0));
#307=VERTEX_POINT('',#306);
#308=CARTESIAN_POINT('',(0.0,0.0,5.0));
#309=DIRECTION('',(0.0,0.0,-1.0));
#310=DIRECTION('',(0.0,-1.0,0.0));
#311=AXIS2_PLACEMENT_3D('',#308,#309,#310);
#312=CIRCLE('',#311,3.250000000000000);
#313=EDGE_CURVE('',#299,#307,#312,.T.);
#314=ORIENTED_EDGE('',*,*,#313,.T.);
#315=CARTESIAN_POINT('',(-20.0,-3.249999999999996,5.0));
#316=VERTEX_POINT('',#315);
#317=CARTESIAN_POINT('',(-5.969956E-016,-3.250000000000000,5.0));
#318=DIRECTION('',(-1.0,0.0,0.0));
#319=VECTOR('',#318,20.0);
#320=LINE('',#317,#319);
#321=EDGE_CURVE('',#307,#316,#320,.T.);
#322=ORIENTED_EDGE('',*,*,#321,.T.);
#323=CARTESIAN_POINT('',(-20.0,3.673819E-015,5.0));
#324=DIRECTION('',(0.0,0.0,-1.0));
#325=DIRECTION('',(0.0,-1.0,0.0));
#326=AXIS2_PLACEMENT_3D('',#323,#324,#325);
#327=CIRCLE('',#326,3.250000000000000);
#328=EDGE_CURVE('',#316,#297,#327,.T.);
#329=ORIENTED_EDGE('',*,*,#328,.T.);
#330=EDGE_LOOP('',(#305,#314,#322,#329));
#331=FACE_BOUND('',#330,.T.);
#332=ADVANCED_FACE('',(#295,#331),#270,.F.);
#333=CARTESIAN_POINT('',(-20.0,3.250000000000004,0.0));
#334=DIRECTION('',(0.0,1.0,0.0));
#335=DIRECTION('',(0.0,0.0,1.0));
#336=AXIS2_PLACEMENT_3D('',#333,#334,#335);
#337=PLANE('',#336);
#338=ORIENTED_EDGE('',*,*,#304,.F.);
#339=CARTESIAN_POINT('',(-20.0,3.250000000000004,0.0));
#340=VERTEX_POINT('',#339);
#341=CARTESIAN_POINT('',(-20.0,3.250000000000004,0.0));
#342=DIRECTION('',(0.0,0.0,1.0));
#343=VECTOR('',#342,5.0);
#344=LINE('',#341,#343);
#345=EDGE_CURVE('',#340,#297,#344,.T.);
#346=ORIENTED_EDGE('',*,*,#345,.F.);
#347=CARTESIAN_POINT('',(5.969956E-016,3.250000000000000,0.0));
#348=VERTEX_POINT('',#347);
#349=CARTESIAN_POINT('',(5.969956E-016,3.250000000000000,0.0));
#350=DIRECTION('',(-1.0,0.0,0.0));
#351=VECTOR('',#350,20.0);
#352=LINE('',#349,#351);
#353=EDGE_CURVE('',#348,#340,#352,.T.);
#354=ORIENTED_EDGE('',*,*,#353,.F.);
#355=CARTESIAN_POINT('',(5.969956E-016,3.250000000000000,0.0));
#356=DIRECTION('',(0.0,0.0,1.0));
#357=VECTOR('',#356,5.0);
#358=LINE('',#355,#357);
#359=EDGE_CURVE('',#348,#299,#358,.T.);
#360=ORIENTED_EDGE('',*,*,#359,.T.);
#361=EDGE_LOOP('',(#338,#346,#354,#360));
#362=FACE_OUTER_BOUND('',#361,.T.);
#363=ADVANCED_FACE('',(#362),#337,.F.);
#364=CARTESIAN_POINT('',(0.0,0.0,0.0));
#365=DIRECTION('',(0.0,0.0,1.0));
#366=DIRECTION('',(0.0,-1.0,0.0));
#367=AXIS2_PLACEMENT_3D('',#364,#365,#366);
#368=CYLINDRICAL_SURFACE('',#367,3.250000000000000);
#369=ORIENTED_EDGE('',*,*,#313,.F.);
#370=ORIENTED_EDGE('',*,*,#359,.F.);
#371=CARTESIAN_POINT('',(-5.969956E-016,-3.250000000000000,0.0));
#372=VERTEX_POINT('',#371);
#373=CARTESIAN_POINT('',(0.0,0.0,0.0));
#374=DIRECTION('',(0.0,0.0,1.0));
#375=DIRECTION('',(0.0,-1.0,0.0));
#376=AXIS2_PLACEMENT_3D('',#373,#374,#375);
#377=CIRCLE('',#376,3.250000000000000);
#378=EDGE_CURVE('',#372,#348,#377,.T.);
#379=ORIENTED_EDGE('',*,*,#378,.F.);
#380=CARTESIAN_POINT('',(-5.969956E-016,-3.250000000000000,0.0));
#381=DIRECTION('',(0.0,0.0,1.0));
#382=VECTOR('',#381,5.0);
#383=LINE('',#380,#382);
#384=EDGE_CURVE('',#372,#307,#383,.T.);
#385=ORIENTED_EDGE('',*,*,#384,.T.);
#386=EDGE_LOOP('',(#369,#370,#379,#385));
#387=FACE_OUTER_BOUND('',#386,.T.);
#388=ADVANCED_FACE('',(#387),#368,.F.);
#389=CARTESIAN_POINT('',(-5.969956E-016,-3.250000000000000,0.0));
#390=DIRECTION('',(0.0,-1.0,0.0));
#391=DIRECTION('',(0.0,0.0,-1.0));
#392=AXIS2_PLACEMENT_3D('',#389,#390,#391);
#393=PLANE('',#392);
#394=ORIENTED_EDGE('',*,*,#321,.F.);
#395=ORIENTED_EDGE('',*,*,#384,.F.);
#396=CARTESIAN_POINT('',(-20.0,-3.249999999999996,0.0));
#397=VERTEX_POINT('',#396);
#398=CARTESIAN_POINT('',(-20.0,-3.249999999999996,0.0));
#399=DIRECTION('',(1.0,0.0,0.0));
#400=VECTOR('',#399,20.0);
#401=LINE('',#398,#400);
#402=EDGE_CURVE('',#397,#372,#401,.T.);
#403=ORIENTED_EDGE('',*,*,#402,.F.);
#404=CARTESIAN_POINT('',(-20.0,-3.249999999999996,0.0));
#405=DIRECTION('',(0.0,0.0,1.0));
#406=VECTOR('',#405,5.0);
#407=LINE('',#404,#406);
#408=EDGE_CURVE('',#397,#316,#407,.T.);
#409=ORIENTED_EDGE('',*,*,#408,.T.);
#410=EDGE_LOOP('',(#394,#395,#403,#409));
#411=FACE_OUTER_BOUND('',#410,.T.);
#412=ADVANCED_FACE('',(#411),#393,.F.);
#413=CARTESIAN_POINT('',(-20.0,3.673819E-015,0.0));
#414=DIRECTION('',(0.0,0.0,1.0));
#415=DIRECTION('',(0.0,-1.0,0.0));
#416=AXIS2_PLACEMENT_3D('',#413,#414,#415);
#417=CYLINDRICAL_SURFACE('',#416,3.250000000000000);
#418=ORIENTED_EDGE('',*,*,#328,.F.);
#419=ORIENTED_EDGE('',*,*,#408,.F.);
#420=CARTESIAN_POINT('',(-20.0,3.673819E-015,0.0));
#421=DIRECTION('',(0.0,0.0,1.0));
#422=DIRECTION('',(0.0,-1.0,0.0));
#423=AXIS2_PLACEMENT_3D('',#420,#421,#422);
#424=CIRCLE('',#423,3.250000000000000);
#425=EDGE_CURVE('',#340,#397,#424,.T.);
#426=ORIENTED_EDGE('',*,*,#425,.F.);
#427=ORIENTED_EDGE('',*,*,#345,.T.);
#428=EDGE_LOOP('',(#418,#419,#426,#427));
#429=FACE_OUTER_BOUND('',#428,.T.);
#430=ADVANCED_FACE('',(#429),#417,.F.);
#431=CARTESIAN_POINT('',(12.500000000000002,7.499999999999997,0.0));
#432=DIRECTION('',(1.0,0.0,0.0));
#433=DIRECTION('',(0.0,0.0,1.0));
#434=AXIS2_PLACEMENT_3D('',#431,#432,#433);
#435=PLANE('',#434);
#436=CARTESIAN_POINT('',(12.499999999999998,-7.500000000000003,0.0));
#437=VERTEX_POINT('',#436);
#438=CARTESIAN_POINT('',(12.499999999999998,-7.500000000000003,0.0));
#439=DIRECTION('',(0.0,0.0,1.0));
#440=VECTOR('',#439,20.0);
#441=LINE('',#438,#440);
#442=EDGE_CURVE('',#437,#243,#441,.T.);
#443=ORIENTED_EDGE('',*,*,#442,.F.);
#444=CARTESIAN_POINT('',(12.500000000000002,7.499999999999997,0.0));
#445=VERTEX_POINT('',#444);
#446=CARTESIAN_POINT('',(12.500000000000002,7.499999999999997,0.0));
#447=DIRECTION('',(0.0,-1.0,0.0));
#448=VECTOR('',#447,15.0);
#449=LINE('',#446,#448);
#450=EDGE_CURVE('',#445,#437,#449,.T.);
#451=ORIENTED_EDGE('',*,*,#450,.F.);
#452=CARTESIAN_POINT('',(12.500000000000002,7.499999999999997,0.0));
#453=DIRECTION('',(0.0,0.0,1.0));
#454=VECTOR('',#453,20.0);
#455=LINE('',#452,#454);
#456=EDGE_CURVE('',#445,#241,#455,.T.);
#457=ORIENTED_EDGE('',*,*,#456,.T.);
#458=ORIENTED_EDGE('',*,*,#248,.T.);
#459=EDGE_LOOP('',(#443,#451,#457,#458));
#460=FACE_OUTER_BOUND('',#459,.T.);
#461=ORIENTED_EDGE('',*,*,#178,.T.);
#462=ORIENTED_EDGE('',*,*,#162,.T.);
#463=EDGE_LOOP('',(#461,#462));
#464=FACE_BOUND('',#463,.T.);
#465=ADVANCED_FACE('',(#460,#464),#435,.T.);
#466=CARTESIAN_POINT('',(12.499999999999998,-7.500000000000003,0.0));
#467=DIRECTION('',(0.0,-1.0,0.0));
#468=DIRECTION('',(0.0,0.0,-1.0));
#469=AXIS2_PLACEMENT_3D('',#466,#467,#468);
#470=PLANE('',#469);
#471=ORIENTED_EDGE('',*,*,#292,.T.);
#472=CARTESIAN_POINT('',(-27.500000000000000,-7.499999999999995,0.0));
#473=VERTEX_POINT('',#472);
#474=CARTESIAN_POINT('',(-27.500000000000000,-7.499999999999995,0.0));
#475=DIRECTION('',(0.0,0.0,1.0));
#476=VECTOR('',#475,5.0);
#477=LINE('',#474,#476);
#478=EDGE_CURVE('',#473,#281,#477,.T.);
#479=ORIENTED_EDGE('',*,*,#478,.F.);
#480=CARTESIAN_POINT('',(12.499999999999998,-7.500000000000003,0.0));
#481=DIRECTION('',(-1.0,0.0,0.0));
#482=VECTOR('',#481,40.0);
#483=LINE('',#480,#482);
#484=EDGE_CURVE('',#437,#473,#483,.T.);
#485=ORIENTED_EDGE('',*,*,#484,.F.);
#486=ORIENTED_EDGE('',*,*,#442,.T.);
#487=ORIENTED_EDGE('',*,*,#261,.T.);
#488=ORIENTED_EDGE('',*,*,#226,.F.);
#489=EDGE_LOOP('',(#471,#479,#485,#486,#487,#488));
#490=FACE_OUTER_BOUND('',#489,.T.);
#491=ADVANCED_FACE('',(#490),#470,.T.);
#492=CARTESIAN_POINT('',(-27.500000000000000,-7.499999999999995,0.0));
#493=DIRECTION('',(-1.0,0.0,0.0));
#494=DIRECTION('',(0.0,0.0,-1.0));
#495=AXIS2_PLACEMENT_3D('',#492,#493,#494);
#496=PLANE('',#495);
#497=ORIENTED_EDGE('',*,*,#286,.T.);
#498=CARTESIAN_POINT('',(-27.500000000000000,7.500000000000005,0.0));
#499=VERTEX_POINT('',#498);
#500=CARTESIAN_POINT('',(-27.500000000000000,7.500000000000005,0.0));
#501=DIRECTION('',(0.0,0.0,1.0));
#502=VECTOR('',#501,5.0);
#503=LINE('',#500,#502);
#504=EDGE_CURVE('',#499,#273,#503,.T.);
#505=ORIENTED_EDGE('',*,*,#504,.F.);
#506=CARTESIAN_POINT('',(-27.500000000000000,-7.499999999999995,0.0));
#507=DIRECTION('',(0.0,1.0,0.0));
#508=VECTOR('',#507,15.0);
#509=LINE('',#506,#508);
#510=EDGE_CURVE('',#473,#499,#509,.T.);
#511=ORIENTED_EDGE('',*,*,#510,.F.);
#512=ORIENTED_EDGE('',*,*,#478,.T.);
#513=EDGE_LOOP('',(#497,#505,#511,#512));
#514=FACE_OUTER_BOUND('',#513,.T.);
#515=ADVANCED_FACE('',(#514),#496,.T.);
#516=CARTESIAN_POINT('',(-27.500000000000000,7.500000000000005,0.0));
#517=DIRECTION('',(0.0,1.0,0.0));
#518=DIRECTION('',(0.0,0.0,1.0));
#519=AXIS2_PLACEMENT_3D('',#516,#517,#518);
#520=PLANE('',#519);
#521=ORIENTED_EDGE('',*,*,#278,.T.);
#522=ORIENTED_EDGE('',*,*,#212,.T.);
#523=ORIENTED_EDGE('',*,*,#254,.T.);
#524=ORIENTED_EDGE('',*,*,#456,.F.);
#525=CARTESIAN_POINT('',(-27.500000000000000,7.500000000000005,0.0));
#526=DIRECTION('',(1.0,0.0,0.0));
#527=VECTOR('',#526,40.0);
#528=LINE('',#525,#527);
#529=EDGE_CURVE('',#499,#445,#528,.T.);
#530=ORIENTED_EDGE('',*,*,#529,.F.);
#531=ORIENTED_EDGE('',*,*,#504,.T.);
#532=EDGE_LOOP('',(#521,#522,#523,#524,#530,#531));
#533=FACE_OUTER_BOUND('',#532,.T.);
#534=ADVANCED_FACE('',(#533),#520,.T.);
#535=CARTESIAN_POINT('',(-7.500000000000000,1.377682E-015,0.0));
#536=DIRECTION('',(0.0,0.0,1.0));
#537=DIRECTION('',(0.0,-1.0,0.0));
#538=AXIS2_PLACEMENT_3D('',#535,#536,#537);
#539=PLANE('',#538);
#540=ORIENTED_EDGE('',*,*,#529,.T.);
#541=ORIENTED_EDGE('',*,*,#450,.T.);
#542=ORIENTED_EDGE('',*,*,#484,.T.);
#543=ORIENTED_EDGE('',*,*,#510,.T.);
#544=EDGE_LOOP('',(#540,#541,#542,#543));
#545=FACE_OUTER_BOUND('',#544,.T.);
#546=ORIENTED_EDGE('',*,*,#353,.T.);
#547=ORIENTED_EDGE('',*,*,#425,.T.);
#548=ORIENTED_EDGE('',*,*,#402,.T.);
#549=ORIENTED_EDGE('',*,*,#378,.T.);
#550=EDGE_LOOP('',(#546,#547,#548,#549));
#551=FACE_BOUND('',#550,.T.);
#552=ADVANCED_FACE('',(#545,#551),#539,.F.);
#553=CLOSED_SHELL('',(#166,#190,#234,#265,#332,#363,#388,#412,#430,#465,#491,#515,#534,#552));
#554=MANIFOLD_SOLID_BREP('538',#553);
#555=ADVANCED_BREP_SHAPE_REPRESENTATION('ABSR1',(#554),#28);
#556=SHAPE_REPRESENTATION_RELATIONSHIP('SRRPL1',' ',#555,#122);
ENDSEC;
END-ISO-10303-21;
