ISO-10303-21;
HEADER;
/****************************************************************
 * Generated by software with PDE/Lib inside                    *
 * PDElib Version v51a, created 12/06/2005 Tue                  *
 * International Technegroup Inc. (www.iti-oh.com)              *
 ****************************************************************/
FILE_DESCRIPTION((''),'2;1');
FILE_NAME('SZ0912N.stp','2009-07-27T13:52:45',(''),(''),'Mechanical Desktop 2007','Mechanical Desktop 2007',', , ');
FILE_SCHEMA(('CONFIG_CONTROL_DESIGN'));
ENDSEC;
DATA;
#8=(NAMED_UNIT(*)PLANE_ANGLE_UNIT()SI_UNIT($,.RADIAN.));
#9=DIMENSIONAL_EXPONENTS(0.0,0.0,0.0,0.0,0.0,0.0,0.0);
#10=PLANE_ANGLE_MEASURE_WITH_UNIT(PLANE_ANGLE_MEASURE(0.017453292500000),#8);
#14=(CONVERSION_BASED_UNIT('DEGREE',#10)NAMED_UNIT(#9)PLANE_ANGLE_UNIT());
#18=(NAMED_UNIT(*)SI_UNIT($,.STERADIAN.)SOLID_ANGLE_UNIT());
#22=(LENGTH_UNIT()NAMED_UNIT(*)SI_UNIT(.MILLI.,.METRE.));
#23=UNCERTAINTY_MEASURE_WITH_UNIT(LENGTH_MEASURE(0.000001000000000),#22,'DISTANCE_ACCURACY_VALUE','');
#28=(GEOMETRIC_REPRESENTATION_CONTEXT(3)GLOBAL_UNCERTAINTY_ASSIGNED_CONTEXT((#23))GLOBAL_UNIT_ASSIGNED_CONTEXT((#14,#18,#22))REPRESENTATION_CONTEXT('None','None'));
#29=APPLICATION_CONTEXT('CONFIGURATION CONTROLLED 3D DESIGNS OF MECHANICAL PARTS AND ASSEMBLIES');
#30=APPLICATION_PROTOCOL_DEFINITION('INTERNATIONAL STANDARD','config_control_design',1995,#29);
#31=MECHANICAL_CONTEXT('3D Mechanical Parts',#29,'mechanical');
#32=PRODUCT('SZ0912N','SZ0912N',' ',(#31));
#33=PRODUCT_RELATED_PRODUCT_CATEGORY('detail',$,(#32));
#34=PRODUCT_CATEGORY('part',$);
#35=PRODUCT_CATEGORY_RELATIONSHIP('None','None',#34,#33);
#36=PERSON('1','Design','Joe',$,$,$);
#37=ORGANIZATION($,'None','None');
#38=PERSON_AND_ORGANIZATION(#36,#37);
#39=PERSON_AND_ORGANIZATION_ROLE('design_owner');
#40=CC_DESIGN_PERSON_AND_ORGANIZATION_ASSIGNMENT(#38,#39,(#32));
#41=PRODUCT_DEFINITION_FORMATION_WITH_SPECIFIED_SOURCE('None','None',#32,.NOT_KNOWN.);
#42=PERSON('2','Creator','Joe',$,$,$);
#43=ORGANIZATION($,'None','None');
#44=PERSON_AND_ORGANIZATION(#42,#43);
#45=PERSON_AND_ORGANIZATION_ROLE('creator');
#46=CC_DESIGN_PERSON_AND_ORGANIZATION_ASSIGNMENT(#44,#45,(#41));
#47=PERSON('3','Supplier','Joe',$,$,$);
#48=ORGANIZATION($,'None','None');
#49=PERSON_AND_ORGANIZATION(#47,#48);
#50=PERSON_AND_ORGANIZATION_ROLE('design_supplier');
#51=CC_DESIGN_PERSON_AND_ORGANIZATION_ASSIGNMENT(#49,#50,(#41));
#52=APPROVAL_STATUS('approved');
#53=APPROVAL(#52,'None');
#54=PERSON('4','Approver','Joe',$,$,$);
#55=ORGANIZATION($,'None','None');
#56=PERSON_AND_ORGANIZATION(#54,#55);
#57=APPROVAL_ROLE('approver');
#58=APPROVAL_PERSON_ORGANIZATION(#56,#53,#57);
#59=COORDINATED_UNIVERSAL_TIME_OFFSET(8,$,.BEHIND.);
#60=CALENDAR_DATE(1996,29,5);
#61=LOCAL_TIME(12,0,0.0,#59);
#62=DATE_AND_TIME(#60,#61);
#63=APPROVAL_DATE_TIME(#62,#53);
#64=CC_DESIGN_APPROVAL(#53,(#41));
#65=SECURITY_CLASSIFICATION_LEVEL('unclassified');
#66=SECURITY_CLASSIFICATION('security','None',#65);
#67=CC_DESIGN_SECURITY_CLASSIFICATION(#66,(#41));
#68=APPROVAL_STATUS('approved');
#69=APPROVAL(#68,'None');
#70=PERSON('5','Approver','Joe',$,$,$);
#71=ORGANIZATION($,'None','None');
#72=PERSON_AND_ORGANIZATION(#70,#71);
#73=APPROVAL_ROLE('approver');
#74=APPROVAL_PERSON_ORGANIZATION(#72,#69,#73);
#75=COORDINATED_UNIVERSAL_TIME_OFFSET(8,$,.BEHIND.);
#76=CALENDAR_DATE(1996,29,5);
#77=LOCAL_TIME(12,0,0.0,#75);
#78=DATE_AND_TIME(#76,#77);
#79=APPROVAL_DATE_TIME(#78,#69);
#80=CC_DESIGN_APPROVAL(#69,(#66));
#81=PERSON('6','Classifier','Joe',$,$,$);
#82=ORGANIZATION($,'None','None');
#83=PERSON_AND_ORGANIZATION(#81,#82);
#84=PERSON_AND_ORGANIZATION_ROLE('classification_officer');
#85=CC_DESIGN_PERSON_AND_ORGANIZATION_ASSIGNMENT(#83,#84,(#66));
#86=COORDINATED_UNIVERSAL_TIME_OFFSET(8,$,.BEHIND.);
#87=CALENDAR_DATE(1996,29,5);
#88=LOCAL_TIME(12,0,0.0,#86);
#89=DATE_AND_TIME(#87,#88);
#90=DATE_TIME_ROLE('classification_date');
#91=CC_DESIGN_DATE_AND_TIME_ASSIGNMENT(#89,#90,(#66));
#92=DESIGN_CONTEXT('Design Context',#29,'design');
#93=PRODUCT_DEFINITION('None','None',#41,#92);
#94=PERSON('7','Creator','Joe',$,$,$);
#95=ORGANIZATION($,'None','None');
#96=PERSON_AND_ORGANIZATION(#94,#95);
#97=PERSON_AND_ORGANIZATION_ROLE('creator');
#98=CC_DESIGN_PERSON_AND_ORGANIZATION_ASSIGNMENT(#96,#97,(#93));
#99=COORDINATED_UNIVERSAL_TIME_OFFSET(8,$,.BEHIND.);
#100=CALENDAR_DATE(1996,29,5);
#101=LOCAL_TIME(12,0,0.0,#99);
#102=DATE_AND_TIME(#100,#101);
#103=DATE_TIME_ROLE('creation_date');
#104=CC_DESIGN_DATE_AND_TIME_ASSIGNMENT(#102,#103,(#93));
#105=APPROVAL_STATUS('approved');
#106=APPROVAL(#105,'None');
#107=PERSON('8','Approver','Joe',$,$,$);
#108=ORGANIZATION($,'None','None');
#109=PERSON_AND_ORGANIZATION(#107,#108);
#110=APPROVAL_ROLE('approver');
#111=APPROVAL_PERSON_ORGANIZATION(#109,#106,#110);
#112=COORDINATED_UNIVERSAL_TIME_OFFSET(8,$,.BEHIND.);
#113=CALENDAR_DATE(1996,29,5);
#114=LOCAL_TIME(12,0,0.0,#112);
#115=DATE_AND_TIME(#113,#114);
#116=APPROVAL_DATE_TIME(#115,#106);
#117=CC_DESIGN_APPROVAL(#106,(#93));
#118=CARTESIAN_POINT('NONE',(0.0,0.0,0.0));
#119=DIRECTION('NONE',(0.0,0.0,1.0));
#120=DIRECTION('NONE',(1.0,0.0,0.0));
#121=AXIS2_PLACEMENT_3D('NONE',#118,#119,#120);
#122=SHAPE_REPRESENTATION('SR1',(#121),#28);
#123=PRODUCT_DEFINITION_SHAPE('PDS1','Test Part',#93);
#124=SHAPE_DEFINITION_REPRESENTATION(#123,#122);
#125=CARTESIAN_POINT('',(-10.0,3.0,-7.500000000000000));
#126=DIRECTION('',(0.0,-1.0,2.220446E-016));
#127=DIRECTION('',(0.0,0.0,1.0));
#128=AXIS2_PLACEMENT_3D('',#125,#126,#127);
#129=CYLINDRICAL_SURFACE('',#128,3.250000000000000);
#130=CARTESIAN_POINT('',(-10.0,5.000000000000001,-4.250000000000000));
#131=VERTEX_POINT('',#130);
#132=CARTESIAN_POINT('',(-10.0,8.881784E-016,-4.249999999999999));
#133=VERTEX_POINT('',#132);
#134=CARTESIAN_POINT('',(-10.0,5.000000000000001,-4.250000000000000));
#135=DIRECTION('',(0.0,-1.0,0.0));
#136=VECTOR('',#135,5.0);
#137=LINE('',#134,#136);
#138=EDGE_CURVE('',#131,#133,#137,.T.);
#139=ORIENTED_EDGE('',*,*,#138,.F.);
#140=CARTESIAN_POINT('',(-10.0,5.0,-10.750000000000000));
#141=VERTEX_POINT('',#140);
#142=CARTESIAN_POINT('',(-10.0,5.0,-7.500000000000000));
#143=DIRECTION('',(0.0,-1.0,0.0));
#144=DIRECTION('',(0.0,0.0,1.0));
#145=AXIS2_PLACEMENT_3D('',#142,#143,#144);
#146=CIRCLE('',#145,3.250000000000000);
#147=EDGE_CURVE('',#141,#131,#146,.T.);
#148=ORIENTED_EDGE('',*,*,#147,.F.);
#149=CARTESIAN_POINT('',(-10.0,0.0,-10.750000000000000));
#150=VERTEX_POINT('',#149);
#151=CARTESIAN_POINT('',(-10.0,5.0,-10.750000000000000));
#152=DIRECTION('',(0.0,-1.0,0.0));
#153=VECTOR('',#152,5.0);
#154=LINE('',#151,#153);
#155=EDGE_CURVE('',#141,#150,#154,.T.);
#156=ORIENTED_EDGE('',*,*,#155,.T.);
#157=CARTESIAN_POINT('',(-10.0,0.0,-7.500000000000000));
#158=DIRECTION('',(0.0,1.0,0.0));
#159=DIRECTION('',(0.0,0.0,1.0));
#160=AXIS2_PLACEMENT_3D('',#157,#158,#159);
#161=CIRCLE('',#160,3.250000000000000);
#162=EDGE_CURVE('',#133,#150,#161,.T.);
#163=ORIENTED_EDGE('',*,*,#162,.F.);
#164=EDGE_LOOP('',(#139,#148,#156,#163));
#165=FACE_OUTER_BOUND('',#164,.T.);
#166=ADVANCED_FACE('',(#165),#129,.F.);
#167=CARTESIAN_POINT('',(-10.0,29.999999999999972,-17.0));
#168=DIRECTION('',(-6.123032E-017,0.0,-1.0));
#169=DIRECTION('',(0.0,-1.0,0.0));
#170=AXIS2_PLACEMENT_3D('',#167,#168,#169);
#171=CYLINDRICAL_SURFACE('',#170,3.250000000000000);
#172=CARTESIAN_POINT('',(-13.250000000000000,29.999999999999972,-15.0));
#173=VERTEX_POINT('',#172);
#174=CARTESIAN_POINT('',(-6.750000000000000,29.999999999999972,-15.0));
#175=VERTEX_POINT('',#174);
#176=CARTESIAN_POINT('',(-10.0,29.999999999999972,-15.0));
#177=DIRECTION('',(0.0,0.0,-1.0));
#178=DIRECTION('',(0.0,-1.0,0.0));
#179=AXIS2_PLACEMENT_3D('',#176,#177,#178);
#180=CIRCLE('',#179,3.250000000000000);
#181=EDGE_CURVE('',#173,#175,#180,.T.);
#182=ORIENTED_EDGE('',*,*,#181,.F.);
#183=CARTESIAN_POINT('',(-13.250000000000000,29.999999999999972,-20.0));
#184=VERTEX_POINT('',#183);
#185=CARTESIAN_POINT('',(-13.250000000000000,29.999999999999972,-20.0));
#186=DIRECTION('',(0.0,0.0,1.0));
#187=VECTOR('',#186,5.0);
#188=LINE('',#185,#187);
#189=EDGE_CURVE('',#184,#173,#188,.T.);
#190=ORIENTED_EDGE('',*,*,#189,.F.);
#191=CARTESIAN_POINT('',(-6.750000000000000,29.999999999999972,-20.0));
#192=VERTEX_POINT('',#191);
#193=CARTESIAN_POINT('',(-10.0,29.999999999999972,-20.0));
#194=DIRECTION('',(0.0,0.0,1.0));
#195=DIRECTION('',(0.0,-1.0,0.0));
#196=AXIS2_PLACEMENT_3D('',#193,#194,#195);
#197=CIRCLE('',#196,3.250000000000000);
#198=EDGE_CURVE('',#192,#184,#197,.T.);
#199=ORIENTED_EDGE('',*,*,#198,.F.);
#200=CARTESIAN_POINT('',(-6.750000000000000,29.999999999999972,-20.0));
#201=DIRECTION('',(0.0,0.0,1.0));
#202=VECTOR('',#201,5.0);
#203=LINE('',#200,#202);
#204=EDGE_CURVE('',#192,#175,#203,.T.);
#205=ORIENTED_EDGE('',*,*,#204,.T.);
#206=EDGE_LOOP('',(#182,#190,#199,#205));
#207=FACE_OUTER_BOUND('',#206,.T.);
#208=ADVANCED_FACE('',(#207),#171,.F.);
#209=CARTESIAN_POINT('',(-6.750000000000000,20.0,-17.0));
#210=DIRECTION('',(-1.0,0.0,0.0));
#211=DIRECTION('',(0.0,0.0,-1.0));
#212=AXIS2_PLACEMENT_3D('',#209,#210,#211);
#213=PLANE('',#212);
#214=CARTESIAN_POINT('',(-6.750000000000000,10.0,-15.0));
#215=VERTEX_POINT('',#214);
#216=CARTESIAN_POINT('',(-6.750000000000000,29.999999999999972,-15.0));
#217=DIRECTION('',(0.0,-1.0,0.0));
#218=VECTOR('',#217,19.999999999999972);
#219=LINE('',#216,#218);
#220=EDGE_CURVE('',#175,#215,#219,.T.);
#221=ORIENTED_EDGE('',*,*,#220,.F.);
#222=ORIENTED_EDGE('',*,*,#204,.F.);
#223=CARTESIAN_POINT('',(-6.750000000000000,10.0,-20.0));
#224=VERTEX_POINT('',#223);
#225=CARTESIAN_POINT('',(-6.750000000000000,10.0,-20.0));
#226=DIRECTION('',(0.0,1.0,0.0));
#227=VECTOR('',#226,19.999999999999972);
#228=LINE('',#225,#227);
#229=EDGE_CURVE('',#224,#192,#228,.T.);
#230=ORIENTED_EDGE('',*,*,#229,.F.);
#231=CARTESIAN_POINT('',(-6.750000000000000,10.0,-20.0));
#232=DIRECTION('',(0.0,0.0,1.0));
#233=VECTOR('',#232,5.0);
#234=LINE('',#231,#233);
#235=EDGE_CURVE('',#224,#215,#234,.T.);
#236=ORIENTED_EDGE('',*,*,#235,.T.);
#237=EDGE_LOOP('',(#221,#222,#230,#236));
#238=FACE_OUTER_BOUND('',#237,.T.);
#239=ADVANCED_FACE('',(#238),#213,.T.);
#240=CARTESIAN_POINT('',(-10.0,10.0,-17.0));
#241=DIRECTION('',(-6.123032E-017,0.0,-1.0));
#242=DIRECTION('',(0.0,-1.0,0.0));
#243=AXIS2_PLACEMENT_3D('',#240,#241,#242);
#244=CYLINDRICAL_SURFACE('',#243,3.250000000000000);
#245=CARTESIAN_POINT('',(-13.250000000000000,10.0,-15.0));
#246=VERTEX_POINT('',#245);
#247=CARTESIAN_POINT('',(-10.0,10.0,-15.0));
#248=DIRECTION('',(0.0,0.0,-1.0));
#249=DIRECTION('',(0.0,-1.0,0.0));
#250=AXIS2_PLACEMENT_3D('',#247,#248,#249);
#251=CIRCLE('',#250,3.250000000000000);
#252=EDGE_CURVE('',#215,#246,#251,.T.);
#253=ORIENTED_EDGE('',*,*,#252,.F.);
#254=ORIENTED_EDGE('',*,*,#235,.F.);
#255=CARTESIAN_POINT('',(-13.250000000000000,10.0,-20.0));
#256=VERTEX_POINT('',#255);
#257=CARTESIAN_POINT('',(-10.0,10.0,-20.0));
#258=DIRECTION('',(0.0,0.0,1.0));
#259=DIRECTION('',(0.0,-1.0,0.0));
#260=AXIS2_PLACEMENT_3D('',#257,#258,#259);
#261=CIRCLE('',#260,3.250000000000000);
#262=EDGE_CURVE('',#256,#224,#261,.T.);
#263=ORIENTED_EDGE('',*,*,#262,.F.);
#264=CARTESIAN_POINT('',(-13.250000000000000,10.0,-20.0));
#265=DIRECTION('',(0.0,0.0,1.0));
#266=VECTOR('',#265,5.0);
#267=LINE('',#264,#266);
#268=EDGE_CURVE('',#256,#246,#267,.T.);
#269=ORIENTED_EDGE('',*,*,#268,.T.);
#270=EDGE_LOOP('',(#253,#254,#263,#269));
#271=FACE_OUTER_BOUND('',#270,.T.);
#272=ADVANCED_FACE('',(#271),#244,.F.);
#273=CARTESIAN_POINT('',(-13.250000000000000,20.0,-17.0));
#274=DIRECTION('',(1.0,0.0,0.0));
#275=DIRECTION('',(0.0,0.0,1.0));
#276=AXIS2_PLACEMENT_3D('',#273,#274,#275);
#277=PLANE('',#276);
#278=CARTESIAN_POINT('',(-13.250000000000000,10.0,-15.0));
#279=DIRECTION('',(0.0,1.0,0.0));
#280=VECTOR('',#279,19.999999999999972);
#281=LINE('',#278,#280);
#282=EDGE_CURVE('',#246,#173,#281,.T.);
#283=ORIENTED_EDGE('',*,*,#282,.F.);
#284=ORIENTED_EDGE('',*,*,#268,.F.);
#285=CARTESIAN_POINT('',(-13.250000000000000,29.999999999999972,-20.0));
#286=DIRECTION('',(0.0,-1.0,0.0));
#287=VECTOR('',#286,19.999999999999972);
#288=LINE('',#285,#287);
#289=EDGE_CURVE('',#184,#256,#288,.T.);
#290=ORIENTED_EDGE('',*,*,#289,.F.);
#291=ORIENTED_EDGE('',*,*,#189,.T.);
#292=EDGE_LOOP('',(#283,#284,#290,#291));
#293=FACE_OUTER_BOUND('',#292,.T.);
#294=ADVANCED_FACE('',(#293),#277,.T.);
#295=CARTESIAN_POINT('',(-10.0,3.0,-7.500000000000000));
#296=DIRECTION('',(0.0,-1.0,2.220446E-016));
#297=DIRECTION('',(0.0,0.0,1.0));
#298=AXIS2_PLACEMENT_3D('',#295,#296,#297);
#299=CYLINDRICAL_SURFACE('',#298,3.250000000000000);
#300=ORIENTED_EDGE('',*,*,#138,.T.);
#301=CARTESIAN_POINT('',(-10.0,0.0,-7.500000000000000));
#302=DIRECTION('',(0.0,1.0,0.0));
#303=DIRECTION('',(0.0,0.0,1.0));
#304=AXIS2_PLACEMENT_3D('',#301,#302,#303);
#305=CIRCLE('',#304,3.250000000000000);
#306=EDGE_CURVE('',#150,#133,#305,.T.);
#307=ORIENTED_EDGE('',*,*,#306,.F.);
#308=ORIENTED_EDGE('',*,*,#155,.F.);
#309=CARTESIAN_POINT('',(-10.0,5.0,-7.500000000000000));
#310=DIRECTION('',(0.0,-1.0,0.0));
#311=DIRECTION('',(0.0,0.0,1.0));
#312=AXIS2_PLACEMENT_3D('',#309,#310,#311);
#313=CIRCLE('',#312,3.250000000000000);
#314=EDGE_CURVE('',#131,#141,#313,.T.);
#315=ORIENTED_EDGE('',*,*,#314,.F.);
#316=EDGE_LOOP('',(#300,#307,#308,#315));
#317=FACE_OUTER_BOUND('',#316,.T.);
#318=ADVANCED_FACE('',(#317),#299,.F.);
#319=CARTESIAN_POINT('',(-20.0,0.0,-20.0));
#320=DIRECTION('',(0.0,-1.0,0.0));
#321=DIRECTION('',(1.0,0.0,0.0));
#322=AXIS2_PLACEMENT_3D('',#319,#320,#321);
#323=PLANE('',#322);
#324=CARTESIAN_POINT('',(0.0,0.0,-20.0));
#325=VERTEX_POINT('',#324);
#326=CARTESIAN_POINT('',(0.0,0.0,0.0));
#327=VERTEX_POINT('',#326);
#328=CARTESIAN_POINT('',(0.0,0.0,-20.0));
#329=DIRECTION('',(0.0,0.0,1.0));
#330=VECTOR('',#329,20.0);
#331=LINE('',#328,#330);
#332=EDGE_CURVE('',#325,#327,#331,.T.);
#333=ORIENTED_EDGE('',*,*,#332,.T.);
#334=CARTESIAN_POINT('',(-20.0,0.0,0.0));
#335=VERTEX_POINT('',#334);
#336=CARTESIAN_POINT('',(-20.0,0.0,0.0));
#337=DIRECTION('',(1.0,0.0,0.0));
#338=VECTOR('',#337,20.0);
#339=LINE('',#336,#338);
#340=EDGE_CURVE('',#335,#327,#339,.T.);
#341=ORIENTED_EDGE('',*,*,#340,.F.);
#342=CARTESIAN_POINT('',(-20.0,0.0,-20.0));
#343=VERTEX_POINT('',#342);
#344=CARTESIAN_POINT('',(-20.0,0.0,0.0));
#345=DIRECTION('',(0.0,0.0,-1.0));
#346=VECTOR('',#345,20.0);
#347=LINE('',#344,#346);
#348=EDGE_CURVE('',#335,#343,#347,.T.);
#349=ORIENTED_EDGE('',*,*,#348,.T.);
#350=CARTESIAN_POINT('',(-20.0,0.0,-20.0));
#351=DIRECTION('',(1.0,0.0,0.0));
#352=VECTOR('',#351,20.0);
#353=LINE('',#350,#352);
#354=EDGE_CURVE('',#343,#325,#353,.T.);
#355=ORIENTED_EDGE('',*,*,#354,.T.);
#356=EDGE_LOOP('',(#333,#341,#349,#355));
#357=FACE_OUTER_BOUND('',#356,.T.);
#358=ORIENTED_EDGE('',*,*,#306,.T.);
#359=ORIENTED_EDGE('',*,*,#162,.T.);
#360=EDGE_LOOP('',(#358,#359));
#361=FACE_BOUND('',#360,.T.);
#362=ADVANCED_FACE('',(#357,#361),#323,.T.);
#363=CARTESIAN_POINT('',(-20.0,12.343750000000000,-7.656250000000000));
#364=DIRECTION('',(1.0,0.0,0.0));
#365=DIRECTION('',(0.0,0.0,1.0));
#366=AXIS2_PLACEMENT_3D('',#363,#364,#365);
#367=PLANE('',#366);
#368=CARTESIAN_POINT('',(-20.0,39.999999999999972,-20.0));
#369=VERTEX_POINT('',#368);
#370=CARTESIAN_POINT('',(-20.0,0.0,-20.0));
#371=DIRECTION('',(0.0,1.0,0.0));
#372=VECTOR('',#371,39.999999999999972);
#373=LINE('',#370,#372);
#374=EDGE_CURVE('',#343,#369,#373,.T.);
#375=ORIENTED_EDGE('',*,*,#374,.F.);
#376=ORIENTED_EDGE('',*,*,#348,.F.);
#377=CARTESIAN_POINT('',(-20.0,5.0,0.0));
#378=VERTEX_POINT('',#377);
#379=CARTESIAN_POINT('',(-20.0,5.0,0.0));
#380=DIRECTION('',(0.0,-1.0,0.0));
#381=VECTOR('',#380,5.0);
#382=LINE('',#379,#381);
#383=EDGE_CURVE('',#378,#335,#382,.T.);
#384=ORIENTED_EDGE('',*,*,#383,.F.);
#385=CARTESIAN_POINT('',(-20.0,5.0,-15.0));
#386=VERTEX_POINT('',#385);
#387=CARTESIAN_POINT('',(-20.0,5.0,-15.0));
#388=DIRECTION('',(0.0,0.0,1.0));
#389=VECTOR('',#388,15.0);
#390=LINE('',#387,#389);
#391=EDGE_CURVE('',#386,#378,#390,.T.);
#392=ORIENTED_EDGE('',*,*,#391,.F.);
#393=CARTESIAN_POINT('',(-20.0,39.999999999999972,-15.0));
#394=VERTEX_POINT('',#393);
#395=CARTESIAN_POINT('',(-20.0,39.999999999999972,-15.0));
#396=DIRECTION('',(0.0,-1.0,0.0));
#397=VECTOR('',#396,34.999999999999972);
#398=LINE('',#395,#397);
#399=EDGE_CURVE('',#394,#386,#398,.T.);
#400=ORIENTED_EDGE('',*,*,#399,.F.);
#401=CARTESIAN_POINT('',(-20.0,39.999999999999972,-20.0));
#402=DIRECTION('',(0.0,0.0,1.0));
#403=VECTOR('',#402,5.0);
#404=LINE('',#401,#403);
#405=EDGE_CURVE('',#369,#394,#404,.T.);
#406=ORIENTED_EDGE('',*,*,#405,.F.);
#407=EDGE_LOOP('',(#375,#376,#384,#392,#400,#406));
#408=FACE_OUTER_BOUND('',#407,.T.);
#409=ADVANCED_FACE('',(#408),#367,.F.);
#410=CARTESIAN_POINT('',(-20.0,5.0,20.0));
#411=DIRECTION('',(0.0,1.0,0.0));
#412=DIRECTION('',(-1.0,0.0,0.0));
#413=AXIS2_PLACEMENT_3D('',#410,#411,#412);
#414=PLANE('',#413);
#415=CARTESIAN_POINT('',(0.0,5.0,0.0));
#416=VERTEX_POINT('',#415);
#417=CARTESIAN_POINT('',(0.0,5.0,-15.0));
#418=VERTEX_POINT('',#417);
#419=CARTESIAN_POINT('',(0.0,5.0,0.0));
#420=DIRECTION('',(0.0,0.0,-1.0));
#421=VECTOR('',#420,15.0);
#422=LINE('',#419,#421);
#423=EDGE_CURVE('',#416,#418,#422,.T.);
#424=ORIENTED_EDGE('',*,*,#423,.T.);
#425=CARTESIAN_POINT('',(-20.0,5.0,-15.0));
#426=DIRECTION('',(1.0,0.0,0.0));
#427=VECTOR('',#426,20.0);
#428=LINE('',#425,#427);
#429=EDGE_CURVE('',#386,#418,#428,.T.);
#430=ORIENTED_EDGE('',*,*,#429,.F.);
#431=ORIENTED_EDGE('',*,*,#391,.T.);
#432=CARTESIAN_POINT('',(-20.0,5.0,0.0));
#433=DIRECTION('',(1.0,0.0,0.0));
#434=VECTOR('',#433,20.0);
#435=LINE('',#432,#434);
#436=EDGE_CURVE('',#378,#416,#435,.T.);
#437=ORIENTED_EDGE('',*,*,#436,.T.);
#438=EDGE_LOOP('',(#424,#430,#431,#437));
#439=FACE_OUTER_BOUND('',#438,.T.);
#440=ORIENTED_EDGE('',*,*,#147,.T.);
#441=ORIENTED_EDGE('',*,*,#314,.T.);
#442=EDGE_LOOP('',(#440,#441));
#443=FACE_BOUND('',#442,.T.);
#444=ADVANCED_FACE('',(#439,#443),#414,.T.);
#445=CARTESIAN_POINT('',(-20.0,0.0,0.0));
#446=DIRECTION('',(0.0,0.0,1.0));
#447=DIRECTION('',(-1.0,0.0,0.0));
#448=AXIS2_PLACEMENT_3D('',#445,#446,#447);
#449=PLANE('',#448);
#450=CARTESIAN_POINT('',(0.0,0.0,0.0));
#451=DIRECTION('',(0.0,1.0,0.0));
#452=VECTOR('',#451,5.0);
#453=LINE('',#450,#452);
#454=EDGE_CURVE('',#327,#416,#453,.T.);
#455=ORIENTED_EDGE('',*,*,#454,.T.);
#456=ORIENTED_EDGE('',*,*,#436,.F.);
#457=ORIENTED_EDGE('',*,*,#383,.T.);
#458=ORIENTED_EDGE('',*,*,#340,.T.);
#459=EDGE_LOOP('',(#455,#456,#457,#458));
#460=FACE_OUTER_BOUND('',#459,.T.);
#461=ADVANCED_FACE('',(#460),#449,.T.);
#462=CARTESIAN_POINT('',(0.0,12.343750000000000,-7.656250000000000));
#463=DIRECTION('',(1.0,0.0,0.0));
#464=DIRECTION('',(0.0,0.0,1.0));
#465=AXIS2_PLACEMENT_3D('',#462,#463,#464);
#466=PLANE('',#465);
#467=ORIENTED_EDGE('',*,*,#332,.F.);
#468=CARTESIAN_POINT('',(0.0,39.999999999999972,-20.0));
#469=VERTEX_POINT('',#468);
#470=CARTESIAN_POINT('',(0.0,39.999999999999972,-20.0));
#471=DIRECTION('',(0.0,-1.0,0.0));
#472=VECTOR('',#471,39.999999999999972);
#473=LINE('',#470,#472);
#474=EDGE_CURVE('',#469,#325,#473,.T.);
#475=ORIENTED_EDGE('',*,*,#474,.F.);
#476=CARTESIAN_POINT('',(0.0,39.999999999999972,-15.0));
#477=VERTEX_POINT('',#476);
#478=CARTESIAN_POINT('',(0.0,39.999999999999972,-15.0));
#479=DIRECTION('',(0.0,0.0,-1.0));
#480=VECTOR('',#479,5.0);
#481=LINE('',#478,#480);
#482=EDGE_CURVE('',#477,#469,#481,.T.);
#483=ORIENTED_EDGE('',*,*,#482,.F.);
#484=CARTESIAN_POINT('',(0.0,5.0,-15.0));
#485=DIRECTION('',(0.0,1.0,0.0));
#486=VECTOR('',#485,34.999999999999972);
#487=LINE('',#484,#486);
#488=EDGE_CURVE('',#418,#477,#487,.T.);
#489=ORIENTED_EDGE('',*,*,#488,.F.);
#490=ORIENTED_EDGE('',*,*,#423,.F.);
#491=ORIENTED_EDGE('',*,*,#454,.F.);
#492=EDGE_LOOP('',(#467,#475,#483,#489,#490,#491));
#493=FACE_OUTER_BOUND('',#492,.T.);
#494=ADVANCED_FACE('',(#493),#466,.T.);
#495=CARTESIAN_POINT('',(-20.0,5.0,-15.0));
#496=DIRECTION('',(0.0,0.0,1.0));
#497=DIRECTION('',(-1.0,0.0,0.0));
#498=AXIS2_PLACEMENT_3D('',#495,#496,#497);
#499=PLANE('',#498);
#500=ORIENTED_EDGE('',*,*,#488,.T.);
#501=CARTESIAN_POINT('',(-20.0,39.999999999999972,-15.0));
#502=DIRECTION('',(1.0,0.0,0.0));
#503=VECTOR('',#502,20.0);
#504=LINE('',#501,#503);
#505=EDGE_CURVE('',#394,#477,#504,.T.);
#506=ORIENTED_EDGE('',*,*,#505,.F.);
#507=ORIENTED_EDGE('',*,*,#399,.T.);
#508=ORIENTED_EDGE('',*,*,#429,.T.);
#509=EDGE_LOOP('',(#500,#506,#507,#508));
#510=FACE_OUTER_BOUND('',#509,.T.);
#511=ORIENTED_EDGE('',*,*,#252,.T.);
#512=ORIENTED_EDGE('',*,*,#282,.T.);
#513=ORIENTED_EDGE('',*,*,#181,.T.);
#514=ORIENTED_EDGE('',*,*,#220,.T.);
#515=EDGE_LOOP('',(#511,#512,#513,#514));
#516=FACE_BOUND('',#515,.T.);
#517=ADVANCED_FACE('',(#510,#516),#499,.T.);
#518=CARTESIAN_POINT('',(-20.0,39.999999999999972,-15.0));
#519=DIRECTION('',(0.0,1.0,0.0));
#520=DIRECTION('',(-1.0,0.0,0.0));
#521=AXIS2_PLACEMENT_3D('',#518,#519,#520);
#522=PLANE('',#521);
#523=ORIENTED_EDGE('',*,*,#482,.T.);
#524=CARTESIAN_POINT('',(-20.0,39.999999999999972,-20.0));
#525=DIRECTION('',(1.0,0.0,0.0));
#526=VECTOR('',#525,20.0);
#527=LINE('',#524,#526);
#528=EDGE_CURVE('',#369,#469,#527,.T.);
#529=ORIENTED_EDGE('',*,*,#528,.F.);
#530=ORIENTED_EDGE('',*,*,#405,.T.);
#531=ORIENTED_EDGE('',*,*,#505,.T.);
#532=EDGE_LOOP('',(#523,#529,#530,#531));
#533=FACE_OUTER_BOUND('',#532,.T.);
#534=ADVANCED_FACE('',(#533),#522,.T.);
#535=CARTESIAN_POINT('',(-20.0,39.999999999999972,-20.0));
#536=DIRECTION('',(0.0,0.0,-1.0));
#537=DIRECTION('',(1.0,0.0,0.0));
#538=AXIS2_PLACEMENT_3D('',#535,#536,#537);
#539=PLANE('',#538);
#540=ORIENTED_EDGE('',*,*,#474,.T.);
#541=ORIENTED_EDGE('',*,*,#354,.F.);
#542=ORIENTED_EDGE('',*,*,#374,.T.);
#543=ORIENTED_EDGE('',*,*,#528,.T.);
#544=EDGE_LOOP('',(#540,#541,#542,#543));
#545=FACE_OUTER_BOUND('',#544,.T.);
#546=ORIENTED_EDGE('',*,*,#262,.T.);
#547=ORIENTED_EDGE('',*,*,#229,.T.);
#548=ORIENTED_EDGE('',*,*,#198,.T.);
#549=ORIENTED_EDGE('',*,*,#289,.T.);
#550=EDGE_LOOP('',(#546,#547,#548,#549));
#551=FACE_BOUND('',#550,.T.);
#552=ADVANCED_FACE('',(#545,#551),#539,.T.);
#553=CLOSED_SHELL('',(#166,#208,#239,#272,#294,#318,#362,#409,#444,#461,#494,#517,#534,#552));
#554=MANIFOLD_SOLID_BREP('36',#553);
#555=ADVANCED_BREP_SHAPE_REPRESENTATION('ABSR1',(#554),#28);
#556=SHAPE_REPRESENTATION_RELATIONSHIP('SRRPL1',' ',#555,#122);
ENDSEC;
END-ISO-10303-21;
