ISO-10303-21;
HEADER;
/* Generated by software containing ST-Developer
 * from STEP Tools, Inc. (www.steptools.com) 
 */

FILE_DESCRIPTION(
/* description */ (''),
/* implementation_level */ '2;1');

FILE_NAME(
/* name */ 
'X:\\VIRI ZA WEB\\CAD DATOTEKE\\ELEKTRI\X2\010C\X0\NI CILINDRI PNCE\\D
ODATNA OPREMA ELEKTRI\X2\010C\X0\NI CILINDRI\\PRITRDILA\\SGS\\izvoz\\C
AD_69550.stp',
/* time_stamp */ '2016-06-01T14:16:57+02:00',
/* author */ ('Hypex'),
/* organization */ ('Hypex'),
/* preprocessor_version */ 'ST-DEVELOPER v16.1',
/* originating_system */ 'Autodesk Inventor 2016',
/* authorisation */ '');

FILE_SCHEMA (('AUTOMOTIVE_DESIGN { 1 0 10303 214 3 1 1 }'));
ENDSEC;

DATA;
#10=MECHANICAL_DESIGN_GEOMETRIC_PRESENTATION_REPRESENTATION('',(#273,#275,
#276,#277,#278,#279,#280,#285,#282,#283,#284,#286,#287,#288,#289,#281,#290,
#291,#293,#274,#292,#272),#550);
#11=SHAPE_REPRESENTATION_RELATIONSHIP('SRR','None',#559,#12);
#12=ADVANCED_BREP_SHAPE_REPRESENTATION('',(#13),#549);
#13=MANIFOLD_SOLID_BREP('Solid1',#315);
#14=SPHERICAL_SURFACE('',#353,14.);
#15=ELLIPSE('',#337,12.3316678110812,7.5);
#16=ELLIPSE('',#341,12.3316678110812,7.5);
#17=CONICAL_SURFACE('',#332,2.16175,59.);
#18=CONICAL_SURFACE('',#347,9.81035459168895,30.0298333083836);
#19=CONICAL_SURFACE('',#355,9.81035459168895,30.0298333083836);
#20=CONICAL_SURFACE('',#356,8.5,52.5412397752805);
#21=LINE('',#477,#29);
#22=LINE('',#496,#30);
#23=LINE('',#512,#31);
#24=LINE('',#514,#32);
#25=LINE('',#515,#33);
#26=LINE('',#523,#34);
#27=LINE('',#525,#35);
#28=LINE('',#526,#36);
#29=VECTOR('',#379,10.7121426428143);
#30=VECTOR('',#392,10.7121426428143);
#31=VECTOR('',#407,6.00000000000001);
#32=VECTOR('',#408,8.48528137423857);
#33=VECTOR('',#409,6.00000000000001);
#34=VECTOR('',#412,6.00000000000001);
#35=VECTOR('',#413,8.48528137423857);
#36=VECTOR('',#414,6.00000000000001);
#37=(
BOUNDED_CURVE()
B_SPLINE_CURVE(2,(#468,#469,#470),.UNSPECIFIED.,.F.,.F.)
B_SPLINE_CURVE_WITH_KNOTS((3,3),(0.,0.974535746407282),.UNSPECIFIED.)
CURVE()
GEOMETRIC_REPRESENTATION_ITEM()
RATIONAL_B_SPLINE_CURVE((1.,1.04288402973026,1.))
REPRESENTATION_ITEM('')
);
#38=(
BOUNDED_CURVE()
B_SPLINE_CURVE(2,(#474,#475,#476),.UNSPECIFIED.,.F.,.F.)
B_SPLINE_CURVE_WITH_KNOTS((3,3),(0.,0.974535746407282),.UNSPECIFIED.)
CURVE()
GEOMETRIC_REPRESENTATION_ITEM()
RATIONAL_B_SPLINE_CURVE((1.,1.04288402973026,1.))
REPRESENTATION_ITEM('')
);
#39=(
BOUNDED_CURVE()
B_SPLINE_CURVE(2,(#487,#488,#489),.UNSPECIFIED.,.F.,.F.)
B_SPLINE_CURVE_WITH_KNOTS((3,3),(0.,0.974535746407282),.UNSPECIFIED.)
CURVE()
GEOMETRIC_REPRESENTATION_ITEM()
RATIONAL_B_SPLINE_CURVE((1.,1.04288402973024,1.))
REPRESENTATION_ITEM('')
);
#40=(
BOUNDED_CURVE()
B_SPLINE_CURVE(2,(#493,#494,#495),.UNSPECIFIED.,.F.,.F.)
B_SPLINE_CURVE_WITH_KNOTS((3,3),(0.,0.974535746407282),.UNSPECIFIED.)
CURVE()
GEOMETRIC_REPRESENTATION_ITEM()
RATIONAL_B_SPLINE_CURVE((1.,1.04288402973024,1.))
REPRESENTATION_ITEM('')
);
#41=(
BOUNDED_CURVE()
B_SPLINE_CURVE(2,(#508,#509,#510),.UNSPECIFIED.,.F.,.F.)
B_SPLINE_CURVE_WITH_KNOTS((3,3),(0.,0.862253744710466),.UNSPECIFIED.)
CURVE()
GEOMETRIC_REPRESENTATION_ITEM()
RATIONAL_B_SPLINE_CURVE((1.,1.11764705882353,1.))
REPRESENTATION_ITEM('')
);
#42=(
BOUNDED_CURVE()
B_SPLINE_CURVE(2,(#519,#520,#521),.UNSPECIFIED.,.F.,.F.)
B_SPLINE_CURVE_WITH_KNOTS((3,3),(0.,0.862253744710466),.UNSPECIFIED.)
CURVE()
GEOMETRIC_REPRESENTATION_ITEM()
RATIONAL_B_SPLINE_CURVE((1.,1.11764705882353,1.))
REPRESENTATION_ITEM('')
);
#43=TOROIDAL_SURFACE('',#322,6.0258284166107,2.24017187629071);
#44=TOROIDAL_SURFACE('',#328,6.0258284166107,2.24017187629071);
#45=PLANE('',#320);
#46=PLANE('',#324);
#47=PLANE('',#326);
#48=PLANE('',#330);
#49=PLANE('',#336);
#50=PLANE('',#338);
#51=PLANE('',#339);
#52=PLANE('',#340);
#53=PLANE('',#342);
#54=FACE_BOUND('',#87,.T.);
#55=FACE_BOUND('',#89,.T.);
#56=FACE_BOUND('',#91,.T.);
#57=FACE_BOUND('',#93,.T.);
#58=FACE_BOUND('',#95,.T.);
#59=FACE_BOUND('',#97,.T.);
#60=FACE_BOUND('',#99,.T.);
#61=FACE_BOUND('',#102,.T.);
#62=FACE_BOUND('',#108,.T.);
#63=FACE_BOUND('',#112,.T.);
#64=FACE_BOUND('',#113,.T.);
#65=FACE_BOUND('',#116,.T.);
#66=FACE_OUTER_BOUND('',#86,.T.);
#67=FACE_OUTER_BOUND('',#88,.T.);
#68=FACE_OUTER_BOUND('',#90,.T.);
#69=FACE_OUTER_BOUND('',#92,.T.);
#70=FACE_OUTER_BOUND('',#94,.T.);
#71=FACE_OUTER_BOUND('',#96,.T.);
#72=FACE_OUTER_BOUND('',#98,.T.);
#73=FACE_OUTER_BOUND('',#100,.T.);
#74=FACE_OUTER_BOUND('',#101,.T.);
#75=FACE_OUTER_BOUND('',#103,.T.);
#76=FACE_OUTER_BOUND('',#104,.T.);
#77=FACE_OUTER_BOUND('',#105,.T.);
#78=FACE_OUTER_BOUND('',#106,.T.);
#79=FACE_OUTER_BOUND('',#107,.T.);
#80=FACE_OUTER_BOUND('',#109,.T.);
#81=FACE_OUTER_BOUND('',#110,.T.);
#82=FACE_OUTER_BOUND('',#111,.T.);
#83=FACE_OUTER_BOUND('',#114,.T.);
#84=FACE_OUTER_BOUND('',#115,.T.);
#85=FACE_OUTER_BOUND('',#117,.T.);
#86=EDGE_LOOP('',(#197));
#87=EDGE_LOOP('',(#198));
#88=EDGE_LOOP('',(#199));
#89=EDGE_LOOP('',(#200));
#90=EDGE_LOOP('',(#201));
#91=EDGE_LOOP('',(#202));
#92=EDGE_LOOP('',(#203,#204,#205,#206));
#93=EDGE_LOOP('',(#207));
#94=EDGE_LOOP('',(#208));
#95=EDGE_LOOP('',(#209));
#96=EDGE_LOOP('',(#210));
#97=EDGE_LOOP('',(#211));
#98=EDGE_LOOP('',(#212,#213,#214,#215));
#99=EDGE_LOOP('',(#216));
#100=EDGE_LOOP('',(#217));
#101=EDGE_LOOP('',(#218));
#102=EDGE_LOOP('',(#219));
#103=EDGE_LOOP('',(#220,#221));
#104=EDGE_LOOP('',(#222,#223,#224,#225));
#105=EDGE_LOOP('',(#226,#227,#228,#229));
#106=EDGE_LOOP('',(#230,#231));
#107=EDGE_LOOP('',(#232,#233,#234,#235));
#108=EDGE_LOOP('',(#236));
#109=EDGE_LOOP('',(#237,#238,#239,#240));
#110=EDGE_LOOP('',(#241,#242,#243,#244));
#111=EDGE_LOOP('',(#245,#246,#247,#248));
#112=EDGE_LOOP('',(#249));
#113=EDGE_LOOP('',(#250,#251,#252,#253));
#114=EDGE_LOOP('',(#254,#255,#256,#257));
#115=EDGE_LOOP('',(#258,#259,#260,#261));
#116=EDGE_LOOP('',(#262));
#117=EDGE_LOOP('',(#263,#264,#265,#266));
#118=CIRCLE('',#318,5.);
#119=CIRCLE('',#319,5.);
#120=CIRCLE('',#321,7.);
#121=CIRCLE('',#323,8.25);
#122=CIRCLE('',#325,12.9783473524174);
#123=CIRCLE('',#327,7.);
#124=CIRCLE('',#329,8.24999999999999);
#125=CIRCLE('',#331,12.9783473524174);
#126=CIRCLE('',#333,4.3235);
#127=CIRCLE('',#335,4.3235);
#128=CIRCLE('',#343,9.5);
#129=CIRCLE('',#344,9.5);
#130=CIRCLE('',#346,9.5);
#131=CIRCLE('',#348,12.1207091833779);
#132=CIRCLE('',#349,7.5);
#133=CIRCLE('',#351,7.5);
#134=CIRCLE('',#352,7.5);
#135=CIRCLE('',#354,12.1207091833779);
#136=CIRCLE('',#357,9.5);
#137=VERTEX_POINT('',#455);
#138=VERTEX_POINT('',#457);
#139=VERTEX_POINT('',#460);
#140=VERTEX_POINT('',#463);
#141=VERTEX_POINT('',#466);
#142=VERTEX_POINT('',#467);
#143=VERTEX_POINT('',#471);
#144=VERTEX_POINT('',#473);
#145=VERTEX_POINT('',#479);
#146=VERTEX_POINT('',#482);
#147=VERTEX_POINT('',#485);
#148=VERTEX_POINT('',#486);
#149=VERTEX_POINT('',#490);
#150=VERTEX_POINT('',#492);
#151=VERTEX_POINT('',#498);
#152=VERTEX_POINT('',#501);
#153=VERTEX_POINT('',#506);
#154=VERTEX_POINT('',#507);
#155=VERTEX_POINT('',#511);
#156=VERTEX_POINT('',#513);
#157=VERTEX_POINT('',#517);
#158=VERTEX_POINT('',#518);
#159=VERTEX_POINT('',#522);
#160=VERTEX_POINT('',#524);
#161=VERTEX_POINT('',#539);
#162=EDGE_CURVE('',#137,#137,#118,.T.);
#163=EDGE_CURVE('',#138,#138,#119,.T.);
#164=EDGE_CURVE('',#139,#139,#120,.T.);
#165=EDGE_CURVE('',#140,#140,#121,.T.);
#166=EDGE_CURVE('',#141,#142,#37,.T.);
#167=EDGE_CURVE('',#143,#141,#122,.T.);
#168=EDGE_CURVE('',#144,#143,#38,.T.);
#169=EDGE_CURVE('',#144,#142,#21,.T.);
#170=EDGE_CURVE('',#145,#145,#123,.T.);
#171=EDGE_CURVE('',#146,#146,#124,.T.);
#172=EDGE_CURVE('',#147,#148,#39,.T.);
#173=EDGE_CURVE('',#149,#147,#125,.T.);
#174=EDGE_CURVE('',#150,#149,#40,.T.);
#175=EDGE_CURVE('',#148,#150,#22,.T.);
#176=EDGE_CURVE('',#151,#151,#126,.T.);
#177=EDGE_CURVE('',#152,#152,#127,.T.);
#178=EDGE_CURVE('',#142,#144,#15,.T.);
#179=EDGE_CURVE('',#153,#154,#41,.T.);
#180=EDGE_CURVE('',#155,#153,#23,.T.);
#181=EDGE_CURVE('',#156,#155,#24,.T.);
#182=EDGE_CURVE('',#154,#156,#25,.T.);
#183=EDGE_CURVE('',#157,#158,#42,.T.);
#184=EDGE_CURVE('',#159,#157,#26,.T.);
#185=EDGE_CURVE('',#160,#159,#27,.T.);
#186=EDGE_CURVE('',#158,#160,#28,.T.);
#187=EDGE_CURVE('',#148,#150,#16,.T.);
#188=EDGE_CURVE('',#155,#160,#128,.T.);
#189=EDGE_CURVE('',#159,#156,#129,.T.);
#190=EDGE_CURVE('',#153,#158,#130,.T.);
#191=EDGE_CURVE('',#143,#147,#131,.T.);
#192=EDGE_CURVE('',#144,#148,#132,.T.);
#193=EDGE_CURVE('',#150,#142,#133,.T.);
#194=EDGE_CURVE('',#161,#161,#134,.T.);
#195=EDGE_CURVE('',#149,#141,#135,.T.);
#196=EDGE_CURVE('',#157,#154,#136,.T.);
#197=ORIENTED_EDGE('',*,*,#162,.F.);
#198=ORIENTED_EDGE('',*,*,#163,.T.);
#199=ORIENTED_EDGE('',*,*,#164,.T.);
#200=ORIENTED_EDGE('',*,*,#163,.F.);
#201=ORIENTED_EDGE('',*,*,#165,.F.);
#202=ORIENTED_EDGE('',*,*,#164,.F.);
#203=ORIENTED_EDGE('',*,*,#166,.F.);
#204=ORIENTED_EDGE('',*,*,#167,.F.);
#205=ORIENTED_EDGE('',*,*,#168,.F.);
#206=ORIENTED_EDGE('',*,*,#169,.T.);
#207=ORIENTED_EDGE('',*,*,#165,.T.);
#208=ORIENTED_EDGE('',*,*,#170,.F.);
#209=ORIENTED_EDGE('',*,*,#162,.T.);
#210=ORIENTED_EDGE('',*,*,#171,.F.);
#211=ORIENTED_EDGE('',*,*,#170,.T.);
#212=ORIENTED_EDGE('',*,*,#172,.F.);
#213=ORIENTED_EDGE('',*,*,#173,.F.);
#214=ORIENTED_EDGE('',*,*,#174,.F.);
#215=ORIENTED_EDGE('',*,*,#175,.F.);
#216=ORIENTED_EDGE('',*,*,#171,.T.);
#217=ORIENTED_EDGE('',*,*,#176,.T.);
#218=ORIENTED_EDGE('',*,*,#177,.F.);
#219=ORIENTED_EDGE('',*,*,#176,.F.);
#220=ORIENTED_EDGE('',*,*,#178,.F.);
#221=ORIENTED_EDGE('',*,*,#169,.F.);
#222=ORIENTED_EDGE('',*,*,#179,.F.);
#223=ORIENTED_EDGE('',*,*,#180,.F.);
#224=ORIENTED_EDGE('',*,*,#181,.F.);
#225=ORIENTED_EDGE('',*,*,#182,.F.);
#226=ORIENTED_EDGE('',*,*,#183,.F.);
#227=ORIENTED_EDGE('',*,*,#184,.F.);
#228=ORIENTED_EDGE('',*,*,#185,.F.);
#229=ORIENTED_EDGE('',*,*,#186,.F.);
#230=ORIENTED_EDGE('',*,*,#187,.F.);
#231=ORIENTED_EDGE('',*,*,#175,.T.);
#232=ORIENTED_EDGE('',*,*,#181,.T.);
#233=ORIENTED_EDGE('',*,*,#188,.T.);
#234=ORIENTED_EDGE('',*,*,#185,.T.);
#235=ORIENTED_EDGE('',*,*,#189,.T.);
#236=ORIENTED_EDGE('',*,*,#177,.T.);
#237=ORIENTED_EDGE('',*,*,#180,.T.);
#238=ORIENTED_EDGE('',*,*,#190,.T.);
#239=ORIENTED_EDGE('',*,*,#186,.T.);
#240=ORIENTED_EDGE('',*,*,#188,.F.);
#241=ORIENTED_EDGE('',*,*,#168,.T.);
#242=ORIENTED_EDGE('',*,*,#191,.T.);
#243=ORIENTED_EDGE('',*,*,#172,.T.);
#244=ORIENTED_EDGE('',*,*,#192,.F.);
#245=ORIENTED_EDGE('',*,*,#178,.T.);
#246=ORIENTED_EDGE('',*,*,#192,.T.);
#247=ORIENTED_EDGE('',*,*,#187,.T.);
#248=ORIENTED_EDGE('',*,*,#193,.T.);
#249=ORIENTED_EDGE('',*,*,#194,.F.);
#250=ORIENTED_EDGE('',*,*,#167,.T.);
#251=ORIENTED_EDGE('',*,*,#195,.F.);
#252=ORIENTED_EDGE('',*,*,#173,.T.);
#253=ORIENTED_EDGE('',*,*,#191,.F.);
#254=ORIENTED_EDGE('',*,*,#166,.T.);
#255=ORIENTED_EDGE('',*,*,#193,.F.);
#256=ORIENTED_EDGE('',*,*,#174,.T.);
#257=ORIENTED_EDGE('',*,*,#195,.T.);
#258=ORIENTED_EDGE('',*,*,#179,.T.);
#259=ORIENTED_EDGE('',*,*,#196,.F.);
#260=ORIENTED_EDGE('',*,*,#183,.T.);
#261=ORIENTED_EDGE('',*,*,#190,.F.);
#262=ORIENTED_EDGE('',*,*,#194,.T.);
#263=ORIENTED_EDGE('',*,*,#182,.T.);
#264=ORIENTED_EDGE('',*,*,#189,.F.);
#265=ORIENTED_EDGE('',*,*,#184,.T.);
#266=ORIENTED_EDGE('',*,*,#196,.T.);
#267=CYLINDRICAL_SURFACE('',#317,5.);
#268=CYLINDRICAL_SURFACE('',#334,4.3235);
#269=CYLINDRICAL_SURFACE('',#345,9.5);
#270=CYLINDRICAL_SURFACE('',#350,7.5);
#271=CYLINDRICAL_SURFACE('',#358,9.5);
#272=STYLED_ITEM('',(#569),#294);
#273=STYLED_ITEM('',(#569),#295);
#274=STYLED_ITEM('',(#569),#296);
#275=STYLED_ITEM('',(#569),#297);
#276=STYLED_ITEM('',(#569),#298);
#277=STYLED_ITEM('',(#569),#299);
#278=STYLED_ITEM('',(#569),#300);
#279=STYLED_ITEM('',(#569),#301);
#280=STYLED_ITEM('',(#569),#302);
#281=STYLED_ITEM('',(#569),#303);
#282=STYLED_ITEM('',(#569),#304);
#283=STYLED_ITEM('',(#569),#305);
#284=STYLED_ITEM('',(#569),#306);
#285=STYLED_ITEM('',(#569),#307);
#286=STYLED_ITEM('',(#569),#308);
#287=STYLED_ITEM('',(#569),#309);
#288=STYLED_ITEM('',(#569),#310);
#289=STYLED_ITEM('',(#569),#311);
#290=STYLED_ITEM('',(#569),#312);
#291=STYLED_ITEM('',(#569),#313);
#292=STYLED_ITEM('',(#569),#314);
#293=STYLED_ITEM('',(#568),#13);
#294=ADVANCED_FACE('',(#66,#54),#267,.F.);
#295=ADVANCED_FACE('',(#67,#55),#45,.F.);
#296=ADVANCED_FACE('',(#68,#56),#43,.T.);
#297=ADVANCED_FACE('',(#69,#57),#46,.F.);
#298=ADVANCED_FACE('',(#70,#58),#47,.T.);
#299=ADVANCED_FACE('',(#71,#59),#44,.T.);
#300=ADVANCED_FACE('',(#72,#60),#48,.F.);
#301=ADVANCED_FACE('',(#73),#17,.F.);
#302=ADVANCED_FACE('',(#74,#61),#268,.F.);
#303=ADVANCED_FACE('',(#75),#49,.F.);
#304=ADVANCED_FACE('',(#76),#50,.F.);
#305=ADVANCED_FACE('',(#77),#51,.F.);
#306=ADVANCED_FACE('',(#78),#52,.F.);
#307=ADVANCED_FACE('',(#79,#62),#53,.T.);
#308=ADVANCED_FACE('',(#80),#269,.T.);
#309=ADVANCED_FACE('',(#81),#18,.T.);
#310=ADVANCED_FACE('',(#82,#63),#270,.T.);
#311=ADVANCED_FACE('',(#64),#14,.T.);
#312=ADVANCED_FACE('',(#83),#19,.T.);
#313=ADVANCED_FACE('',(#84,#65),#20,.T.);
#314=ADVANCED_FACE('',(#85),#271,.T.);
#315=CLOSED_SHELL('',(#294,#295,#296,#297,#298,#299,#300,#301,#302,#303,
#304,#305,#306,#307,#308,#309,#310,#311,#312,#313,#314));
#316=AXIS2_PLACEMENT_3D('placement',#453,#359,#360);
#317=AXIS2_PLACEMENT_3D('',#454,#361,#362);
#318=AXIS2_PLACEMENT_3D('',#456,#363,#364);
#319=AXIS2_PLACEMENT_3D('',#458,#365,#366);
#320=AXIS2_PLACEMENT_3D('',#459,#367,#368);
#321=AXIS2_PLACEMENT_3D('',#461,#369,#370);
#322=AXIS2_PLACEMENT_3D('',#462,#371,#372);
#323=AXIS2_PLACEMENT_3D('',#464,#373,#374);
#324=AXIS2_PLACEMENT_3D('',#465,#375,#376);
#325=AXIS2_PLACEMENT_3D('',#472,#377,#378);
#326=AXIS2_PLACEMENT_3D('',#478,#380,#381);
#327=AXIS2_PLACEMENT_3D('',#480,#382,#383);
#328=AXIS2_PLACEMENT_3D('',#481,#384,#385);
#329=AXIS2_PLACEMENT_3D('',#483,#386,#387);
#330=AXIS2_PLACEMENT_3D('',#484,#388,#389);
#331=AXIS2_PLACEMENT_3D('',#491,#390,#391);
#332=AXIS2_PLACEMENT_3D('',#497,#393,#394);
#333=AXIS2_PLACEMENT_3D('',#499,#395,#396);
#334=AXIS2_PLACEMENT_3D('',#500,#397,#398);
#335=AXIS2_PLACEMENT_3D('',#502,#399,#400);
#336=AXIS2_PLACEMENT_3D('',#503,#401,#402);
#337=AXIS2_PLACEMENT_3D('',#504,#403,#404);
#338=AXIS2_PLACEMENT_3D('',#505,#405,#406);
#339=AXIS2_PLACEMENT_3D('',#516,#410,#411);
#340=AXIS2_PLACEMENT_3D('',#527,#415,#416);
#341=AXIS2_PLACEMENT_3D('',#528,#417,#418);
#342=AXIS2_PLACEMENT_3D('',#529,#419,#420);
#343=AXIS2_PLACEMENT_3D('',#530,#421,#422);
#344=AXIS2_PLACEMENT_3D('',#531,#423,#424);
#345=AXIS2_PLACEMENT_3D('',#532,#425,#426);
#346=AXIS2_PLACEMENT_3D('',#533,#427,#428);
#347=AXIS2_PLACEMENT_3D('',#534,#429,#430);
#348=AXIS2_PLACEMENT_3D('',#535,#431,#432);
#349=AXIS2_PLACEMENT_3D('',#536,#433,#434);
#350=AXIS2_PLACEMENT_3D('',#537,#435,#436);
#351=AXIS2_PLACEMENT_3D('',#538,#437,#438);
#352=AXIS2_PLACEMENT_3D('',#540,#439,#440);
#353=AXIS2_PLACEMENT_3D('',#541,#441,#442);
#354=AXIS2_PLACEMENT_3D('',#542,#443,#444);
#355=AXIS2_PLACEMENT_3D('',#543,#445,#446);
#356=AXIS2_PLACEMENT_3D('',#544,#447,#448);
#357=AXIS2_PLACEMENT_3D('',#545,#449,#450);
#358=AXIS2_PLACEMENT_3D('',#546,#451,#452);
#359=DIRECTION('axis',(0.,0.,1.));
#360=DIRECTION('refdir',(1.,0.,0.));
#361=DIRECTION('center_axis',(1.,-2.63881421466249E-16,0.));
#362=DIRECTION('ref_axis',(2.63881421466249E-16,1.,0.));
#363=DIRECTION('center_axis',(1.,0.,0.));
#364=DIRECTION('ref_axis',(0.,1.,0.));
#365=DIRECTION('center_axis',(1.,-2.63881421466249E-16,0.));
#366=DIRECTION('ref_axis',(2.63881421466249E-16,1.,0.));
#367=DIRECTION('center_axis',(-1.,2.63881421466249E-16,0.));
#368=DIRECTION('ref_axis',(0.,0.,1.));
#369=DIRECTION('center_axis',(1.,-2.63881421466249E-16,0.));
#370=DIRECTION('ref_axis',(2.63881421466249E-16,1.,0.));
#371=DIRECTION('center_axis',(-1.,2.63881421466249E-16,0.));
#372=DIRECTION('ref_axis',(0.,0.,-1.));
#373=DIRECTION('center_axis',(-1.,1.97911066099687E-16,0.));
#374=DIRECTION('ref_axis',(0.,0.,1.));
#375=DIRECTION('center_axis',(-1.,1.31940710733125E-16,0.));
#376=DIRECTION('ref_axis',(0.,0.,1.));
#377=DIRECTION('center_axis',(-1.,1.31940710733125E-16,0.));
#378=DIRECTION('ref_axis',(0.,0.,-1.));
#379=DIRECTION('',(0.,0.,-1.));
#380=DIRECTION('center_axis',(-1.,0.,0.));
#381=DIRECTION('ref_axis',(0.,0.,1.));
#382=DIRECTION('center_axis',(1.,0.,0.));
#383=DIRECTION('ref_axis',(0.,1.,0.));
#384=DIRECTION('center_axis',(1.,0.,0.));
#385=DIRECTION('ref_axis',(0.,0.,-1.));
#386=DIRECTION('center_axis',(1.,9.89555330498434E-17,0.));
#387=DIRECTION('ref_axis',(0.,0.,-1.));
#388=DIRECTION('center_axis',(1.,1.97911066099687E-16,0.));
#389=DIRECTION('ref_axis',(0.,0.,-1.));
#390=DIRECTION('center_axis',(1.,1.97911066099687E-16,0.));
#391=DIRECTION('ref_axis',(0.,0.,1.));
#392=DIRECTION('',(0.,0.,-1.));
#393=DIRECTION('center_axis',(0.,-1.,0.));
#394=DIRECTION('ref_axis',(1.,0.,0.));
#395=DIRECTION('center_axis',(0.,-1.,0.));
#396=DIRECTION('ref_axis',(1.,0.,0.));
#397=DIRECTION('center_axis',(0.,-1.,0.));
#398=DIRECTION('ref_axis',(1.,0.,0.));
#399=DIRECTION('center_axis',(0.,1.,0.));
#400=DIRECTION('ref_axis',(1.,0.,0.));
#401=DIRECTION('center_axis',(-0.793791302877062,-0.608190239544121,0.));
#402=DIRECTION('ref_axis',(0.,0.,1.));
#403=DIRECTION('center_axis',(-0.793791302877062,-0.608190239544121,0.));
#404=DIRECTION('ref_axis',(0.608190239544121,-0.793791302877062,0.));
#405=DIRECTION('center_axis',(1.,2.62829014592346E-16,0.));
#406=DIRECTION('ref_axis',(0.,0.,-1.));
#407=DIRECTION('',(0.,1.,0.));
#408=DIRECTION('',(0.,0.,-1.));
#409=DIRECTION('',(0.,-1.,0.));
#410=DIRECTION('center_axis',(-1.,1.75219343061564E-16,0.));
#411=DIRECTION('ref_axis',(0.,0.,1.));
#412=DIRECTION('',(0.,1.,0.));
#413=DIRECTION('',(0.,0.,1.));
#414=DIRECTION('',(0.,-1.,0.));
#415=DIRECTION('center_axis',(0.793791302877062,-0.608190239544121,0.));
#416=DIRECTION('ref_axis',(0.,0.,-1.));
#417=DIRECTION('center_axis',(0.793791302877062,-0.608190239544121,0.));
#418=DIRECTION('ref_axis',(0.608190239544121,0.793791302877062,0.));
#419=DIRECTION('center_axis',(0.,-1.,0.));
#420=DIRECTION('ref_axis',(0.,0.,-1.));
#421=DIRECTION('center_axis',(0.,-1.,0.));
#422=DIRECTION('ref_axis',(1.,0.,0.));
#423=DIRECTION('center_axis',(0.,-1.,0.));
#424=DIRECTION('ref_axis',(1.,0.,0.));
#425=DIRECTION('center_axis',(0.,-1.,0.));
#426=DIRECTION('ref_axis',(1.,0.,0.));
#427=DIRECTION('center_axis',(0.,-1.,0.));
#428=DIRECTION('ref_axis',(1.,0.,0.));
#429=DIRECTION('center_axis',(0.,1.,0.));
#430=DIRECTION('ref_axis',(1.,0.,0.));
#431=DIRECTION('center_axis',(0.,-1.,0.));
#432=DIRECTION('ref_axis',(1.,0.,0.));
#433=DIRECTION('center_axis',(0.,-1.,0.));
#434=DIRECTION('ref_axis',(1.,0.,0.));
#435=DIRECTION('center_axis',(0.,-1.,0.));
#436=DIRECTION('ref_axis',(1.,0.,0.));
#437=DIRECTION('center_axis',(0.,-1.,0.));
#438=DIRECTION('ref_axis',(1.,0.,0.));
#439=DIRECTION('center_axis',(0.,-1.,0.));
#440=DIRECTION('ref_axis',(1.,0.,0.));
#441=DIRECTION('center_axis',(6.12323399573677E-17,0.,1.));
#442=DIRECTION('ref_axis',(1.,0.,0.));
#443=DIRECTION('center_axis',(0.,-1.,0.));
#444=DIRECTION('ref_axis',(1.,0.,0.));
#445=DIRECTION('center_axis',(0.,1.,0.));
#446=DIRECTION('ref_axis',(1.,0.,0.));
#447=DIRECTION('center_axis',(0.,-1.,0.));
#448=DIRECTION('ref_axis',(1.,0.,0.));
#449=DIRECTION('center_axis',(0.,-1.,0.));
#450=DIRECTION('ref_axis',(1.,0.,0.));
#451=DIRECTION('center_axis',(0.,-1.,0.));
#452=DIRECTION('ref_axis',(1.,0.,0.));
#453=CARTESIAN_POINT('',(0.,0.,0.));
#454=CARTESIAN_POINT('Origin',(6.12500000000001,43.,0.));
#455=CARTESIAN_POINT('',(-7.00000000000001,48.,0.));
#456=CARTESIAN_POINT('Origin',(-7.00000000000001,43.,0.));
#457=CARTESIAN_POINT('',(7.00000000000001,48.,0.));
#458=CARTESIAN_POINT('Origin',(7.00000000000001,43.,0.));
#459=CARTESIAN_POINT('Origin',(7.00000000000002,49.,0.));
#460=CARTESIAN_POINT('',(7.00000000000002,50.,0.));
#461=CARTESIAN_POINT('Origin',(7.00000000000001,43.,0.));
#462=CARTESIAN_POINT('Origin',(4.98273458329338,43.,0.));
#463=CARTESIAN_POINT('',(5.25000000000001,51.25,0.));
#464=CARTESIAN_POINT('Origin',(5.25,43.,0.));
#465=CARTESIAN_POINT('Origin',(5.25000000000001,61.6582399308367,16.));
#466=CARTESIAN_POINT('',(5.25,35.9936879250223,-10.9247009619495));
#467=CARTESIAN_POINT('',(5.25,28.,-5.35607132140713));
#468=CARTESIAN_POINT('Ctrl Pts',(5.25,35.9936879250223,-10.9247009619495));
#469=CARTESIAN_POINT('Ctrl Pts',(5.25,30.6297746754469,-7.48467543625989));
#470=CARTESIAN_POINT('Ctrl Pts',(5.25,28.,-5.35607132140713));
#471=CARTESIAN_POINT('',(5.25,35.9936879250223,10.9247009619495));
#472=CARTESIAN_POINT('Origin',(5.25000000000001,43.,0.));
#473=CARTESIAN_POINT('',(5.25,28.,5.35607132140713));
#474=CARTESIAN_POINT('Ctrl Pts',(5.25,28.,5.35607132140713));
#475=CARTESIAN_POINT('Ctrl Pts',(5.25,30.6297746754469,7.48467543625989));
#476=CARTESIAN_POINT('Ctrl Pts',(5.25,35.9936879250223,10.9247009619495));
#477=CARTESIAN_POINT('',(5.25,28.,16.));
#478=CARTESIAN_POINT('Origin',(-7.00000000000001,49.,0.));
#479=CARTESIAN_POINT('',(-7.00000000000001,50.,0.));
#480=CARTESIAN_POINT('Origin',(-7.00000000000001,43.,0.));
#481=CARTESIAN_POINT('Origin',(-4.98273458329337,43.,0.));
#482=CARTESIAN_POINT('',(-5.25000000000001,51.25,0.));
#483=CARTESIAN_POINT('Origin',(-5.25000000000001,43.,0.));
#484=CARTESIAN_POINT('Origin',(-5.25,28.,16.));
#485=CARTESIAN_POINT('',(-5.25000000000001,35.9936879250223,10.9247009619495));
#486=CARTESIAN_POINT('',(-5.25,28.,5.35607132140713));
#487=CARTESIAN_POINT('Ctrl Pts',(-5.25000000000001,35.9936879250223,10.9247009619495));
#488=CARTESIAN_POINT('Ctrl Pts',(-5.25000000000001,30.629774675447,7.48467543625997));
#489=CARTESIAN_POINT('Ctrl Pts',(-5.25,28.,5.35607132140713));
#490=CARTESIAN_POINT('',(-5.25000000000001,35.9936879250223,-10.9247009619495));
#491=CARTESIAN_POINT('Origin',(-5.25000000000001,43.,0.));
#492=CARTESIAN_POINT('',(-5.25,28.,-5.35607132140713));
#493=CARTESIAN_POINT('Ctrl Pts',(-5.25,28.,-5.35607132140713));
#494=CARTESIAN_POINT('Ctrl Pts',(-5.25000000000001,30.629774675447,-7.48467543625997));
#495=CARTESIAN_POINT('Ctrl Pts',(-5.25000000000001,35.9936879250223,-10.9247009619495));
#496=CARTESIAN_POINT('',(-5.25,28.,16.));
#497=CARTESIAN_POINT('Origin',(0.,22.2989104431828,0.));
#498=CARTESIAN_POINT('',(4.3235,21.,0.));
#499=CARTESIAN_POINT('Origin',(0.,21.,0.));
#500=CARTESIAN_POINT('Origin',(0.,10.5,0.));
#501=CARTESIAN_POINT('',(4.3235,2.90844009032815E-16,0.));
#502=CARTESIAN_POINT('Origin',(0.,0.,0.));
#503=CARTESIAN_POINT('Origin',(5.25,28.,16.));
#504=CARTESIAN_POINT('Origin',(0.,34.8521394608837,0.));
#505=CARTESIAN_POINT('Origin',(-8.5,-2.08287606190606,16.));
#506=CARTESIAN_POINT('',(-8.5,6.00000000000001,-4.24264068711928));
#507=CARTESIAN_POINT('',(-8.5,6.00000000000001,4.24264068711928));
#508=CARTESIAN_POINT('Ctrl Pts',(-8.5,6.00000000000001,-4.24264068711927));
#509=CARTESIAN_POINT('Ctrl Pts',(-8.5,7.45171715751532,0.));
#510=CARTESIAN_POINT('Ctrl Pts',(-8.5,6.00000000000001,4.24264068711927));
#511=CARTESIAN_POINT('',(-8.5,0.,-4.24264068711928));
#512=CARTESIAN_POINT('',(-8.5,3.,-4.24264068711928));
#513=CARTESIAN_POINT('',(-8.5,0.,4.24264068711928));
#514=CARTESIAN_POINT('',(-8.5,2.77555756156289E-16,8.));
#515=CARTESIAN_POINT('',(-8.5,3.,4.24264068711928));
#516=CARTESIAN_POINT('Origin',(8.5,10.5895036562975,16.));
#517=CARTESIAN_POINT('',(8.5,6.00000000000001,4.24264068711928));
#518=CARTESIAN_POINT('',(8.5,6.00000000000001,-4.24264068711928));
#519=CARTESIAN_POINT('Ctrl Pts',(8.5,6.00000000000001,4.24264068711927));
#520=CARTESIAN_POINT('Ctrl Pts',(8.5,7.45171715751532,0.));
#521=CARTESIAN_POINT('Ctrl Pts',(8.5,6.00000000000001,-4.24264068711927));
#522=CARTESIAN_POINT('',(8.5,0.,4.24264068711928));
#523=CARTESIAN_POINT('',(8.5,3.,4.24264068711928));
#524=CARTESIAN_POINT('',(8.5,0.,-4.24264068711928));
#525=CARTESIAN_POINT('',(8.5,0.,8.));
#526=CARTESIAN_POINT('',(8.5,3.,-4.24264068711928));
#527=CARTESIAN_POINT('Origin',(-7.5,25.0633688024784,16.));
#528=CARTESIAN_POINT('Origin',(0.,34.8521394608837,0.));
#529=CARTESIAN_POINT('Origin',(4.75,2.90844009032815E-16,0.));
#530=CARTESIAN_POINT('Origin',(0.,0.,0.));
#531=CARTESIAN_POINT('Origin',(0.,0.,0.));
#532=CARTESIAN_POINT('Origin',(0.,3.,0.));
#533=CARTESIAN_POINT('Origin',(0.,6.00000000000001,0.));
#534=CARTESIAN_POINT('Origin',(0.,31.9968439625111,0.));
#535=CARTESIAN_POINT('Origin',(0.,35.9936879250223,0.));
#536=CARTESIAN_POINT('Origin',(0.,28.,0.));
#537=CARTESIAN_POINT('Origin',(0.,17.7661840553553,0.));
#538=CARTESIAN_POINT('Origin',(0.,28.,0.));
#539=CARTESIAN_POINT('',(7.5,7.53236811071062,0.));
#540=CARTESIAN_POINT('Origin',(0.,7.53236811071062,0.));
#541=CARTESIAN_POINT('Origin',(-1.77635683940025E-14,43.,0.));
#542=CARTESIAN_POINT('Origin',(0.,35.9936879250223,0.));
#543=CARTESIAN_POINT('Origin',(0.,31.9968439625111,0.));
#544=CARTESIAN_POINT('Origin',(0.,6.76618405535531,0.));
#545=CARTESIAN_POINT('Origin',(0.,6.00000000000001,0.));
#546=CARTESIAN_POINT('Origin',(0.,3.,0.));
#547=UNCERTAINTY_MEASURE_WITH_UNIT(LENGTH_MEASURE(0.01),#551,
'DISTANCE_ACCURACY_VALUE',
'Maximum model space distance between geometric entities at asserted c
onnectivities');
#548=UNCERTAINTY_MEASURE_WITH_UNIT(LENGTH_MEASURE(1.E-6),#551,
'DISTANCE_ACCURACY_VALUE',
'Maximum model space distance between geometric entities at asserted c
onnectivities');
#549=(
GEOMETRIC_REPRESENTATION_CONTEXT(3)
GLOBAL_UNCERTAINTY_ASSIGNED_CONTEXT((#547))
GLOBAL_UNIT_ASSIGNED_CONTEXT((#551,#554,#552))
REPRESENTATION_CONTEXT('','3D')
);
#550=(
GEOMETRIC_REPRESENTATION_CONTEXT(3)
GLOBAL_UNCERTAINTY_ASSIGNED_CONTEXT((#548))
GLOBAL_UNIT_ASSIGNED_CONTEXT((#551,#554,#552))
REPRESENTATION_CONTEXT('','3D')
);
#551=(
LENGTH_UNIT()
NAMED_UNIT(*)
SI_UNIT(.MILLI.,.METRE.)
);
#552=(
NAMED_UNIT(*)
SI_UNIT($,.STERADIAN.)
SOLID_ANGLE_UNIT()
);
#553=DIMENSIONAL_EXPONENTS(0.,0.,0.,0.,0.,0.,0.);
#554=(
CONVERSION_BASED_UNIT('degree',#556)
NAMED_UNIT(#553)
PLANE_ANGLE_UNIT()
);
#555=(
NAMED_UNIT(*)
PLANE_ANGLE_UNIT()
SI_UNIT($,.RADIAN.)
);
#556=PLANE_ANGLE_MEASURE_WITH_UNIT(PLANE_ANGLE_MEASURE(0.01745329252),#555);
#557=SHAPE_DEFINITION_REPRESENTATION(#558,#559);
#558=PRODUCT_DEFINITION_SHAPE('',$,#561);
#559=SHAPE_REPRESENTATION('',(#316),#549);
#560=PRODUCT_DEFINITION_CONTEXT('part definition',#565,'design');
#561=PRODUCT_DEFINITION('CAD_69550','CAD_69550',#562,#560);
#562=PRODUCT_DEFINITION_FORMATION('',$,#567);
#563=PRODUCT_RELATED_PRODUCT_CATEGORY('CAD_69550','CAD_69550',(#567));
#564=APPLICATION_PROTOCOL_DEFINITION('international standard',
'automotive_design',2009,#565);
#565=APPLICATION_CONTEXT(
'Core Data for Automotive Mechanical Design Process');
#566=PRODUCT_CONTEXT('part definition',#565,'mechanical');
#567=PRODUCT('CAD_69550','CAD_69550',$,(#566));
#568=PRESENTATION_STYLE_ASSIGNMENT((#570));
#569=PRESENTATION_STYLE_ASSIGNMENT((#571));
#570=SURFACE_STYLE_USAGE(.BOTH.,#572);
#571=SURFACE_STYLE_USAGE(.BOTH.,#573);
#572=SURFACE_SIDE_STYLE('',(#574));
#573=SURFACE_SIDE_STYLE('',(#575));
#574=SURFACE_STYLE_FILL_AREA(#576);
#575=SURFACE_STYLE_FILL_AREA(#577);
#576=FILL_AREA_STYLE('',(#578));
#577=FILL_AREA_STYLE('',(#579));
#578=FILL_AREA_STYLE_COLOUR('',#580);
#579=FILL_AREA_STYLE_COLOUR('',#581);
#580=COLOUR_RGB('',0.87843137254902,0.874509803921569,0.858823529411765);
#581=COLOUR_RGB('',0.67843137254902,0.768627450980392,0.811764705882353);
ENDSEC;
END-ISO-10303-21;
