ISO-10303-21;
HEADER;
/* Generated by software containing ST-Developer
 * from STEP Tools, Inc. (www.steptools.com) 
 */

FILE_DESCRIPTION(
/* description */ ('Handgriff AL120'),
/* implementation_level */ '2;1');

FILE_NAME(
/* name */ 
'T:\\Produktinformationen\\MT\\B45\\3D-Files B45\\Handgriff\\Syskomp 4
02750100 Handgriff AL120.stp',
/* time_stamp */ '2018-06-05T12:12:04+02:00',
/* author */ ('wheldmann'),
/* organization */ (''),
/* preprocessor_version */ 'ST-DEVELOPER v16.1',
/* originating_system */ 'Autodesk Inventor 2016',
/* authorisation */ '');

FILE_SCHEMA (('AUTOMOTIVE_DESIGN { 1 0 10303 214 3 1 1 }'));
ENDSEC;

DATA;
#10=MECHANICAL_DESIGN_GEOMETRIC_PRESENTATION_REPRESENTATION('',(#13),#229);
#11=SHAPE_REPRESENTATION_RELATIONSHIP('SRR','None',#238,#12);
#12=ADVANCED_BREP_SHAPE_REPRESENTATION('',(#14),#228);
#13=STYLED_ITEM('',(#247),#14);
#14=MANIFOLD_SOLID_BREP('Volumenk\X\F6rper1',#127);
#15=PLANE('',#148);
#16=PLANE('',#149);
#17=TOROIDAL_SURFACE('',#140,15.,5.);
#18=TOROIDAL_SURFACE('',#144,15.,5.);
#19=FACE_BOUND('',#46,.T.);
#20=FACE_BOUND('',#49,.T.);
#21=FACE_BOUND('',#51,.T.);
#22=FACE_BOUND('',#53,.T.);
#23=FACE_BOUND('',#55,.T.);
#24=FACE_BOUND('',#57,.T.);
#25=FACE_BOUND('',#59,.T.);
#26=FACE_BOUND('',#61,.T.);
#27=FACE_BOUND('',#63,.T.);
#28=CYLINDRICAL_SURFACE('',#131,2.067);
#29=CYLINDRICAL_SURFACE('',#135,2.067);
#30=CYLINDRICAL_SURFACE('',#137,5.);
#31=CYLINDRICAL_SURFACE('',#142,5.);
#32=CYLINDRICAL_SURFACE('',#146,5.);
#33=FACE_OUTER_BOUND('',#44,.T.);
#34=FACE_OUTER_BOUND('',#45,.T.);
#35=FACE_OUTER_BOUND('',#47,.T.);
#36=FACE_OUTER_BOUND('',#48,.T.);
#37=FACE_OUTER_BOUND('',#50,.T.);
#38=FACE_OUTER_BOUND('',#52,.T.);
#39=FACE_OUTER_BOUND('',#54,.T.);
#40=FACE_OUTER_BOUND('',#56,.T.);
#41=FACE_OUTER_BOUND('',#58,.T.);
#42=FACE_OUTER_BOUND('',#60,.T.);
#43=FACE_OUTER_BOUND('',#62,.T.);
#44=EDGE_LOOP('',(#94));
#45=EDGE_LOOP('',(#95));
#46=EDGE_LOOP('',(#96));
#47=EDGE_LOOP('',(#97));
#48=EDGE_LOOP('',(#98));
#49=EDGE_LOOP('',(#99));
#50=EDGE_LOOP('',(#100));
#51=EDGE_LOOP('',(#101));
#52=EDGE_LOOP('',(#102));
#53=EDGE_LOOP('',(#103));
#54=EDGE_LOOP('',(#104));
#55=EDGE_LOOP('',(#105));
#56=EDGE_LOOP('',(#106));
#57=EDGE_LOOP('',(#107));
#58=EDGE_LOOP('',(#108));
#59=EDGE_LOOP('',(#109));
#60=EDGE_LOOP('',(#110));
#61=EDGE_LOOP('',(#111));
#62=EDGE_LOOP('',(#112));
#63=EDGE_LOOP('',(#113));
#64=CIRCLE('',#130,2.067);
#65=CIRCLE('',#132,2.067);
#66=CIRCLE('',#134,2.067);
#67=CIRCLE('',#136,2.067);
#68=CIRCLE('',#138,5.);
#69=CIRCLE('',#139,5.);
#70=CIRCLE('',#141,5.);
#71=CIRCLE('',#143,5.);
#72=CIRCLE('',#145,5.);
#73=CIRCLE('',#147,5.);
#74=VERTEX_POINT('',#196);
#75=VERTEX_POINT('',#199);
#76=VERTEX_POINT('',#202);
#77=VERTEX_POINT('',#205);
#78=VERTEX_POINT('',#208);
#79=VERTEX_POINT('',#210);
#80=VERTEX_POINT('',#213);
#81=VERTEX_POINT('',#216);
#82=VERTEX_POINT('',#219);
#83=VERTEX_POINT('',#222);
#84=EDGE_CURVE('',#74,#74,#64,.T.);
#85=EDGE_CURVE('',#75,#75,#65,.T.);
#86=EDGE_CURVE('',#76,#76,#66,.T.);
#87=EDGE_CURVE('',#77,#77,#67,.T.);
#88=EDGE_CURVE('',#78,#78,#68,.T.);
#89=EDGE_CURVE('',#79,#79,#69,.T.);
#90=EDGE_CURVE('',#80,#80,#70,.T.);
#91=EDGE_CURVE('',#81,#81,#71,.T.);
#92=EDGE_CURVE('',#82,#82,#72,.T.);
#93=EDGE_CURVE('',#83,#83,#73,.T.);
#94=ORIENTED_EDGE('',*,*,#84,.T.);
#95=ORIENTED_EDGE('',*,*,#85,.F.);
#96=ORIENTED_EDGE('',*,*,#84,.F.);
#97=ORIENTED_EDGE('',*,*,#86,.T.);
#98=ORIENTED_EDGE('',*,*,#87,.F.);
#99=ORIENTED_EDGE('',*,*,#86,.F.);
#100=ORIENTED_EDGE('',*,*,#88,.F.);
#101=ORIENTED_EDGE('',*,*,#89,.T.);
#102=ORIENTED_EDGE('',*,*,#89,.F.);
#103=ORIENTED_EDGE('',*,*,#90,.T.);
#104=ORIENTED_EDGE('',*,*,#90,.F.);
#105=ORIENTED_EDGE('',*,*,#91,.T.);
#106=ORIENTED_EDGE('',*,*,#91,.F.);
#107=ORIENTED_EDGE('',*,*,#92,.T.);
#108=ORIENTED_EDGE('',*,*,#92,.F.);
#109=ORIENTED_EDGE('',*,*,#93,.T.);
#110=ORIENTED_EDGE('',*,*,#88,.T.);
#111=ORIENTED_EDGE('',*,*,#85,.T.);
#112=ORIENTED_EDGE('',*,*,#93,.F.);
#113=ORIENTED_EDGE('',*,*,#87,.T.);
#114=CONICAL_SURFACE('',#129,1.0335,59.);
#115=CONICAL_SURFACE('',#133,1.0335,59.);
#116=ADVANCED_FACE('',(#33),#114,.F.);
#117=ADVANCED_FACE('',(#34,#19),#28,.F.);
#118=ADVANCED_FACE('',(#35),#115,.F.);
#119=ADVANCED_FACE('',(#36,#20),#29,.F.);
#120=ADVANCED_FACE('',(#37,#21),#30,.T.);
#121=ADVANCED_FACE('',(#38,#22),#17,.T.);
#122=ADVANCED_FACE('',(#39,#23),#31,.T.);
#123=ADVANCED_FACE('',(#40,#24),#18,.T.);
#124=ADVANCED_FACE('',(#41,#25),#32,.T.);
#125=ADVANCED_FACE('',(#42,#26),#15,.F.);
#126=ADVANCED_FACE('',(#43,#27),#16,.T.);
#127=CLOSED_SHELL('',(#116,#117,#118,#119,#120,#121,#122,#123,#124,#125,
#126));
#128=AXIS2_PLACEMENT_3D('placement',#194,#150,#151);
#129=AXIS2_PLACEMENT_3D('',#195,#152,#153);
#130=AXIS2_PLACEMENT_3D('',#197,#154,#155);
#131=AXIS2_PLACEMENT_3D('',#198,#156,#157);
#132=AXIS2_PLACEMENT_3D('',#200,#158,#159);
#133=AXIS2_PLACEMENT_3D('',#201,#160,#161);
#134=AXIS2_PLACEMENT_3D('',#203,#162,#163);
#135=AXIS2_PLACEMENT_3D('',#204,#164,#165);
#136=AXIS2_PLACEMENT_3D('',#206,#166,#167);
#137=AXIS2_PLACEMENT_3D('',#207,#168,#169);
#138=AXIS2_PLACEMENT_3D('',#209,#170,#171);
#139=AXIS2_PLACEMENT_3D('',#211,#172,#173);
#140=AXIS2_PLACEMENT_3D('',#212,#174,#175);
#141=AXIS2_PLACEMENT_3D('',#214,#176,#177);
#142=AXIS2_PLACEMENT_3D('',#215,#178,#179);
#143=AXIS2_PLACEMENT_3D('',#217,#180,#181);
#144=AXIS2_PLACEMENT_3D('',#218,#182,#183);
#145=AXIS2_PLACEMENT_3D('',#220,#184,#185);
#146=AXIS2_PLACEMENT_3D('',#221,#186,#187);
#147=AXIS2_PLACEMENT_3D('',#223,#188,#189);
#148=AXIS2_PLACEMENT_3D('',#224,#190,#191);
#149=AXIS2_PLACEMENT_3D('',#225,#192,#193);
#150=DIRECTION('axis',(0.,0.,1.));
#151=DIRECTION('refdir',(1.,0.,0.));
#152=DIRECTION('center_axis',(5.66553889764798E-16,0.,1.));
#153=DIRECTION('ref_axis',(1.,0.,-5.66553889764798E-16));
#154=DIRECTION('center_axis',(5.66553889764798E-16,0.,1.));
#155=DIRECTION('ref_axis',(1.,0.,-5.66553889764798E-16));
#156=DIRECTION('center_axis',(5.66553889764798E-16,0.,1.));
#157=DIRECTION('ref_axis',(1.,0.,-5.66553889764798E-16));
#158=DIRECTION('center_axis',(-5.66553889764798E-16,0.,-1.));
#159=DIRECTION('ref_axis',(1.,0.,-5.66553889764798E-16));
#160=DIRECTION('center_axis',(0.,0.,1.));
#161=DIRECTION('ref_axis',(1.,0.,0.));
#162=DIRECTION('center_axis',(0.,0.,1.));
#163=DIRECTION('ref_axis',(1.,0.,0.));
#164=DIRECTION('center_axis',(0.,0.,1.));
#165=DIRECTION('ref_axis',(1.,0.,0.));
#166=DIRECTION('center_axis',(0.,0.,-1.));
#167=DIRECTION('ref_axis',(1.,0.,0.));
#168=DIRECTION('center_axis',(0.,0.,1.));
#169=DIRECTION('ref_axis',(1.,0.,0.));
#170=DIRECTION('center_axis',(5.66553889764798E-16,0.,1.));
#171=DIRECTION('ref_axis',(1.,0.,-5.66553889764798E-16));
#172=DIRECTION('center_axis',(5.66553889764798E-16,0.,1.));
#173=DIRECTION('ref_axis',(1.,0.,-5.66553889764798E-16));
#174=DIRECTION('center_axis',(0.,-1.,0.));
#175=DIRECTION('ref_axis',(0.,0.,-1.));
#176=DIRECTION('center_axis',(1.,0.,-6.12323399573677E-17));
#177=DIRECTION('ref_axis',(-6.12323399573677E-17,0.,-1.));
#178=DIRECTION('center_axis',(1.,0.,-1.97372982155583E-16));
#179=DIRECTION('ref_axis',(-1.97372982155583E-16,0.,-1.));
#180=DIRECTION('center_axis',(1.,0.,-6.12323399573677E-17));
#181=DIRECTION('ref_axis',(-6.12323399573677E-17,0.,-1.));
#182=DIRECTION('center_axis',(0.,-1.,0.));
#183=DIRECTION('ref_axis',(0.,0.,-1.));
#184=DIRECTION('center_axis',(0.,0.,-1.));
#185=DIRECTION('ref_axis',(-1.,0.,0.));
#186=DIRECTION('center_axis',(-1.28185868640845E-16,0.,-1.));
#187=DIRECTION('ref_axis',(-1.,0.,1.28185868640845E-16));
#188=DIRECTION('center_axis',(0.,0.,-1.));
#189=DIRECTION('ref_axis',(-1.,0.,0.));
#190=DIRECTION('center_axis',(-5.66553889764798E-16,0.,-1.));
#191=DIRECTION('ref_axis',(-1.,0.,5.66553889764798E-16));
#192=DIRECTION('center_axis',(0.,0.,1.));
#193=DIRECTION('ref_axis',(1.,0.,0.));
#194=CARTESIAN_POINT('',(0.,0.,0.));
#195=CARTESIAN_POINT('Origin',(120.,0.,-12.620989449765));
#196=CARTESIAN_POINT('',(122.067,0.,-12.));
#197=CARTESIAN_POINT('Origin',(120.,0.,-12.));
#198=CARTESIAN_POINT('Origin',(120.,0.,-6.00000000000002));
#199=CARTESIAN_POINT('',(122.067,0.,-1.89346352841463E-14));
#200=CARTESIAN_POINT('Origin',(120.,0.,-1.77635683940025E-14));
#201=CARTESIAN_POINT('Origin',(0.,0.,-12.620989449765));
#202=CARTESIAN_POINT('',(2.067,0.,-12.));
#203=CARTESIAN_POINT('Origin',(0.,0.,-12.));
#204=CARTESIAN_POINT('Origin',(0.,0.,-6.));
#205=CARTESIAN_POINT('',(2.067,0.,0.));
#206=CARTESIAN_POINT('Origin',(0.,0.,0.));
#207=CARTESIAN_POINT('Origin',(120.,0.,-20.));
#208=CARTESIAN_POINT('',(115.,6.12323399573677E-16,-1.77635683940025E-14));
#209=CARTESIAN_POINT('Origin',(120.,0.,-1.77635683940025E-14));
#210=CARTESIAN_POINT('',(115.,6.12323399573677E-16,-20.));
#211=CARTESIAN_POINT('Origin',(120.,0.,-20.));
#212=CARTESIAN_POINT('Origin',(105.,0.,-20.));
#213=CARTESIAN_POINT('',(105.,6.12323399573677E-16,-30.));
#214=CARTESIAN_POINT('Origin',(105.,0.,-35.));
#215=CARTESIAN_POINT('Origin',(15.,0.,-35.));
#216=CARTESIAN_POINT('',(15.,6.12323399573677E-16,-30.));
#217=CARTESIAN_POINT('Origin',(15.,0.,-35.));
#218=CARTESIAN_POINT('Origin',(15.,0.,-20.));
#219=CARTESIAN_POINT('',(5.,6.12323399573677E-16,-20.));
#220=CARTESIAN_POINT('Origin',(-2.5637173728169E-15,0.,-20.));
#221=CARTESIAN_POINT('Origin',(0.,0.,0.));
#222=CARTESIAN_POINT('',(5.,6.12323399573677E-16,0.));
#223=CARTESIAN_POINT('Origin',(0.,0.,0.));
#224=CARTESIAN_POINT('Origin',(120.,9.25185853854297E-17,-1.77635683940025E-14));
#225=CARTESIAN_POINT('Origin',(-2.36064120735332E-16,9.25185853854297E-17,
0.));
#226=UNCERTAINTY_MEASURE_WITH_UNIT(LENGTH_MEASURE(0.01),#230,
'DISTANCE_ACCURACY_VALUE',
'Maximum model space distance between geometric entities at asserted c
onnectivities');
#227=UNCERTAINTY_MEASURE_WITH_UNIT(LENGTH_MEASURE(1.E-6),#230,
'DISTANCE_ACCURACY_VALUE',
'Maximum model space distance between geometric entities at asserted c
onnectivities');
#228=(
GEOMETRIC_REPRESENTATION_CONTEXT(3)
GLOBAL_UNCERTAINTY_ASSIGNED_CONTEXT((#226))
GLOBAL_UNIT_ASSIGNED_CONTEXT((#230,#233,#231))
REPRESENTATION_CONTEXT('','3D')
);
#229=(
GEOMETRIC_REPRESENTATION_CONTEXT(3)
GLOBAL_UNCERTAINTY_ASSIGNED_CONTEXT((#227))
GLOBAL_UNIT_ASSIGNED_CONTEXT((#230,#233,#231))
REPRESENTATION_CONTEXT('','3D')
);
#230=(
LENGTH_UNIT()
NAMED_UNIT(*)
SI_UNIT(.MILLI.,.METRE.)
);
#231=(
NAMED_UNIT(*)
SI_UNIT($,.STERADIAN.)
SOLID_ANGLE_UNIT()
);
#232=DIMENSIONAL_EXPONENTS(0.,0.,0.,0.,0.,0.,0.);
#233=(
CONVERSION_BASED_UNIT('degree',#235)
NAMED_UNIT(#232)
PLANE_ANGLE_UNIT()
);
#234=(
NAMED_UNIT(*)
PLANE_ANGLE_UNIT()
SI_UNIT($,.RADIAN.)
);
#235=PLANE_ANGLE_MEASURE_WITH_UNIT(PLANE_ANGLE_MEASURE(0.01745329252),#234);
#236=SHAPE_DEFINITION_REPRESENTATION(#237,#238);
#237=PRODUCT_DEFINITION_SHAPE('',$,#240);
#238=SHAPE_REPRESENTATION('',(#128),#228);
#239=PRODUCT_DEFINITION_CONTEXT('part definition',#244,'design');
#240=PRODUCT_DEFINITION('402750100 Handgriff AL120',
'402750100 Handgriff AL120',#241,#239);
#241=PRODUCT_DEFINITION_FORMATION('',$,#246);
#242=PRODUCT_RELATED_PRODUCT_CATEGORY('402750100 Handgriff AL120',
'402750100 Handgriff AL120',(#246));
#243=APPLICATION_PROTOCOL_DEFINITION('international standard',
'automotive_design',2009,#244);
#244=APPLICATION_CONTEXT(
'Core Data for Automotive Mechanical Design Process');
#245=PRODUCT_CONTEXT('part definition',#244,'mechanical');
#246=PRODUCT('402750100 Handgriff AL120','402750100 Handgriff AL120',$,
(#245));
#247=PRESENTATION_STYLE_ASSIGNMENT((#248));
#248=SURFACE_STYLE_USAGE(.BOTH.,#249);
#249=SURFACE_SIDE_STYLE('',(#250));
#250=SURFACE_STYLE_FILL_AREA(#251);
#251=FILL_AREA_STYLE('',(#252));
#252=FILL_AREA_STYLE_COLOUR('',#253);
#253=COLOUR_RGB('',0.,0.,0.);
ENDSEC;
END-ISO-10303-21;
