ISO-10303-21;
HEADER;
/* Generated by software containing ST-Developer
 * from STEP Tools, Inc. (www.steptools.com) 
 */

FILE_DESCRIPTION(
/* description */ ('Trapezteller 80 mit Anti-Slip-Platte'),
/* implementation_level */ '2;1');

FILE_NAME(
/* name */ 
'T:\\Produktinformationen\\MT\\I40\\3D-Files I40\\Trapezteller f\X\FCr
 feste Stellf\X\FC\X\DFe\\203600503 Trapezteller 80 mit Anti-Slip-Plat
te.stp',
/* time_stamp */ '2020-01-29T14:42:41+01:00',
/* author */ ('wheldmann'),
/* organization */ (''),
/* preprocessor_version */ 'ST-DEVELOPER v17.2',
/* originating_system */ 'Autodesk Inventor 2019',
/* authorisation */ ' ');

FILE_SCHEMA (('AUTOMOTIVE_DESIGN { 1 0 10303 214 3 1 1 }'));
ENDSEC;

DATA;
#10=MECHANICAL_DESIGN_GEOMETRIC_PRESENTATION_REPRESENTATION('',(#13),#566);
#11=SHAPE_REPRESENTATION_RELATIONSHIP('SRR','None',#573,#12);
#12=ADVANCED_BREP_SHAPE_REPRESENTATION('',(#14),#565);
#13=STYLED_ITEM('',(#582),#14);
#14=MANIFOLD_SOLID_BREP('Volumenk\X\F6rper2',#291);
#15=CONICAL_SURFACE('',#338,6.5016441907,0.0872664626);
#16=CONICAL_SURFACE('',#341,7.035,1.2197456237);
#17=CONICAL_SURFACE('',#349,37.8530859635,0.034906585);
#18=CONICAL_SURFACE('',#356,23.4057864376,0.7853981634);
#19=CONICAL_SURFACE('',#361,9.4652354692,0.1745329252);
#20=SPHERICAL_SURFACE('',#333,20.);
#21=FACE_BOUND('',#66,.T.);
#22=FACE_BOUND('',#72,.T.);
#23=FACE_BOUND('',#78,.T.);
#24=PLANE('',#320);
#25=PLANE('',#321);
#26=PLANE('',#324);
#27=PLANE('',#344);
#28=PLANE('',#360);
#29=LINE('',#489,#36);
#30=LINE('',#521,#37);
#31=LINE('',#529,#38);
#32=LINE('',#542,#39);
#33=LINE('',#553,#40);
#34=LINE('',#556,#41);
#35=LINE('',#562,#42);
#36=VECTOR('',#382,34.);
#37=VECTOR('',#421,6.5016441907);
#38=VECTOR('',#430,7.035);
#39=VECTOR('',#445,37.8530859635);
#40=VECTOR('',#460,23.4057864376);
#41=VECTOR('',#463,34.5);
#42=VECTOR('',#472,9.4652354692);
#43=CYLINDRICAL_SURFACE('',#317,34.);
#44=CYLINDRICAL_SURFACE('',#357,34.5);
#45=FACE_OUTER_BOUND('',#61,.T.);
#46=FACE_OUTER_BOUND('',#62,.T.);
#47=FACE_OUTER_BOUND('',#63,.T.);
#48=FACE_OUTER_BOUND('',#64,.T.);
#49=FACE_OUTER_BOUND('',#65,.T.);
#50=FACE_OUTER_BOUND('',#67,.T.);
#51=FACE_OUTER_BOUND('',#68,.T.);
#52=FACE_OUTER_BOUND('',#69,.T.);
#53=FACE_OUTER_BOUND('',#70,.T.);
#54=FACE_OUTER_BOUND('',#71,.T.);
#55=FACE_OUTER_BOUND('',#73,.T.);
#56=FACE_OUTER_BOUND('',#74,.T.);
#57=FACE_OUTER_BOUND('',#75,.T.);
#58=FACE_OUTER_BOUND('',#76,.T.);
#59=FACE_OUTER_BOUND('',#77,.T.);
#60=FACE_OUTER_BOUND('',#79,.T.);
#61=EDGE_LOOP('',(#188,#189,#190,#191,#192,#193));
#62=EDGE_LOOP('',(#194,#195,#196,#197,#198,#199));
#63=EDGE_LOOP('',(#200,#201));
#64=EDGE_LOOP('',(#202,#203));
#65=EDGE_LOOP('',(#204,#205));
#66=EDGE_LOOP('',(#206,#207));
#67=EDGE_LOOP('',(#208,#209,#210,#211,#212,#213));
#68=EDGE_LOOP('',(#214,#215,#216,#217,#218,#219,#220));
#69=EDGE_LOOP('',(#221,#222,#223,#224,#225,#226,#227));
#70=EDGE_LOOP('',(#228,#229,#230,#231,#232,#233));
#71=EDGE_LOOP('',(#234,#235));
#72=EDGE_LOOP('',(#236,#237));
#73=EDGE_LOOP('',(#238,#239,#240,#241,#242,#243));
#74=EDGE_LOOP('',(#244,#245,#246,#247,#248,#249));
#75=EDGE_LOOP('',(#250,#251,#252,#253,#254,#255));
#76=EDGE_LOOP('',(#256,#257,#258,#259,#260,#261));
#77=EDGE_LOOP('',(#262,#263));
#78=EDGE_LOOP('',(#264,#265));
#79=EDGE_LOOP('',(#266,#267,#268,#269,#270,#271));
#80=CIRCLE('',#312,33.);
#81=CIRCLE('',#313,1.);
#82=CIRCLE('',#314,34.);
#83=CIRCLE('',#315,34.);
#84=CIRCLE('',#316,33.);
#85=CIRCLE('',#318,34.);
#86=CIRCLE('',#319,34.);
#87=CIRCLE('',#322,11.56);
#88=CIRCLE('',#323,11.56);
#89=CIRCLE('',#325,21.9915728753);
#90=CIRCLE('',#326,21.9915728753);
#91=CIRCLE('',#327,11.3026545555);
#92=CIRCLE('',#328,11.3026545555);
#93=CIRCLE('',#330,23.4057864376);
#94=CIRCLE('',#331,23.4057864376);
#95=CIRCLE('',#332,2.);
#96=CIRCLE('',#334,20.);
#97=CIRCLE('',#335,6.5016441907);
#98=CIRCLE('',#336,6.5016441907);
#99=CIRCLE('',#337,6.5016441907);
#100=CIRCLE('',#339,7.035);
#101=CIRCLE('',#340,7.035);
#102=CIRCLE('',#342,9.4652354692);
#103=CIRCLE('',#343,9.4652354692);
#104=CIRCLE('',#345,38.);
#105=CIRCLE('',#346,38.);
#106=CIRCLE('',#347,34.5);
#107=CIRCLE('',#348,34.5);
#108=CIRCLE('',#350,37.8530859635);
#109=CIRCLE('',#351,37.8530859635);
#110=CIRCLE('',#353,2.);
#111=CIRCLE('',#354,37.2685178719);
#112=CIRCLE('',#355,37.2685178719);
#113=CIRCLE('',#358,34.5);
#114=CIRCLE('',#359,34.5);
#115=VERTEX_POINT('',#475);
#116=VERTEX_POINT('',#476);
#117=VERTEX_POINT('',#478);
#118=VERTEX_POINT('',#480);
#119=VERTEX_POINT('',#485);
#120=VERTEX_POINT('',#486);
#121=VERTEX_POINT('',#492);
#122=VERTEX_POINT('',#493);
#123=VERTEX_POINT('',#497);
#124=VERTEX_POINT('',#498);
#125=VERTEX_POINT('',#501);
#126=VERTEX_POINT('',#502);
#127=VERTEX_POINT('',#506);
#128=VERTEX_POINT('',#507);
#129=VERTEX_POINT('',#512);
#130=VERTEX_POINT('',#514);
#131=VERTEX_POINT('',#516);
#132=VERTEX_POINT('',#520);
#133=VERTEX_POINT('',#522);
#134=VERTEX_POINT('',#526);
#135=VERTEX_POINT('',#527);
#136=VERTEX_POINT('',#532);
#137=VERTEX_POINT('',#533);
#138=VERTEX_POINT('',#536);
#139=VERTEX_POINT('',#537);
#140=VERTEX_POINT('',#541);
#141=VERTEX_POINT('',#543);
#142=VERTEX_POINT('',#547);
#143=VERTEX_POINT('',#549);
#144=VERTEX_POINT('',#555);
#145=VERTEX_POINT('',#557);
#146=EDGE_CURVE('',#115,#116,#80,.T.);
#147=EDGE_CURVE('',#116,#117,#81,.T.);
#148=EDGE_CURVE('',#117,#118,#82,.T.);
#149=EDGE_CURVE('',#118,#117,#83,.T.);
#150=EDGE_CURVE('',#116,#115,#84,.T.);
#151=EDGE_CURVE('',#119,#120,#85,.F.);
#152=EDGE_CURVE('',#120,#119,#86,.F.);
#153=EDGE_CURVE('',#120,#117,#29,.T.);
#154=EDGE_CURVE('',#121,#122,#87,.T.);
#155=EDGE_CURVE('',#122,#121,#88,.T.);
#156=EDGE_CURVE('',#123,#124,#89,.T.);
#157=EDGE_CURVE('',#124,#123,#90,.T.);
#158=EDGE_CURVE('',#125,#126,#91,.T.);
#159=EDGE_CURVE('',#126,#125,#92,.T.);
#160=EDGE_CURVE('',#127,#128,#93,.T.);
#161=EDGE_CURVE('',#128,#127,#94,.T.);
#162=EDGE_CURVE('',#128,#124,#95,.T.);
#163=EDGE_CURVE('',#126,#129,#96,.T.);
#164=EDGE_CURVE('',#129,#130,#97,.T.);
#165=EDGE_CURVE('',#130,#131,#98,.T.);
#166=EDGE_CURVE('',#131,#129,#99,.T.);
#167=EDGE_CURVE('',#131,#132,#30,.T.);
#168=EDGE_CURVE('',#132,#133,#100,.T.);
#169=EDGE_CURVE('',#133,#132,#101,.T.);
#170=EDGE_CURVE('',#134,#135,#102,.T.);
#171=EDGE_CURVE('',#135,#133,#31,.T.);
#172=EDGE_CURVE('',#135,#134,#103,.T.);
#173=EDGE_CURVE('',#136,#137,#104,.T.);
#174=EDGE_CURVE('',#137,#136,#105,.T.);
#175=EDGE_CURVE('',#138,#139,#106,.T.);
#176=EDGE_CURVE('',#139,#138,#107,.T.);
#177=EDGE_CURVE('',#137,#140,#32,.T.);
#178=EDGE_CURVE('',#140,#141,#108,.T.);
#179=EDGE_CURVE('',#141,#140,#109,.T.);
#180=EDGE_CURVE('',#140,#142,#110,.T.);
#181=EDGE_CURVE('',#142,#143,#111,.T.);
#182=EDGE_CURVE('',#143,#142,#112,.T.);
#183=EDGE_CURVE('',#142,#128,#33,.T.);
#184=EDGE_CURVE('',#139,#144,#34,.T.);
#185=EDGE_CURVE('',#145,#144,#113,.T.);
#186=EDGE_CURVE('',#144,#145,#114,.T.);
#187=EDGE_CURVE('',#134,#122,#35,.T.);
#188=ORIENTED_EDGE('',*,*,#146,.T.);
#189=ORIENTED_EDGE('',*,*,#147,.T.);
#190=ORIENTED_EDGE('',*,*,#148,.T.);
#191=ORIENTED_EDGE('',*,*,#149,.T.);
#192=ORIENTED_EDGE('',*,*,#147,.F.);
#193=ORIENTED_EDGE('',*,*,#150,.T.);
#194=ORIENTED_EDGE('',*,*,#151,.F.);
#195=ORIENTED_EDGE('',*,*,#152,.F.);
#196=ORIENTED_EDGE('',*,*,#153,.T.);
#197=ORIENTED_EDGE('',*,*,#149,.F.);
#198=ORIENTED_EDGE('',*,*,#148,.F.);
#199=ORIENTED_EDGE('',*,*,#153,.F.);
#200=ORIENTED_EDGE('',*,*,#146,.F.);
#201=ORIENTED_EDGE('',*,*,#150,.F.);
#202=ORIENTED_EDGE('',*,*,#154,.F.);
#203=ORIENTED_EDGE('',*,*,#155,.F.);
#204=ORIENTED_EDGE('',*,*,#156,.F.);
#205=ORIENTED_EDGE('',*,*,#157,.F.);
#206=ORIENTED_EDGE('',*,*,#158,.T.);
#207=ORIENTED_EDGE('',*,*,#159,.T.);
#208=ORIENTED_EDGE('',*,*,#160,.F.);
#209=ORIENTED_EDGE('',*,*,#161,.F.);
#210=ORIENTED_EDGE('',*,*,#162,.T.);
#211=ORIENTED_EDGE('',*,*,#157,.T.);
#212=ORIENTED_EDGE('',*,*,#156,.T.);
#213=ORIENTED_EDGE('',*,*,#162,.F.);
#214=ORIENTED_EDGE('',*,*,#158,.F.);
#215=ORIENTED_EDGE('',*,*,#159,.F.);
#216=ORIENTED_EDGE('',*,*,#163,.T.);
#217=ORIENTED_EDGE('',*,*,#164,.T.);
#218=ORIENTED_EDGE('',*,*,#165,.T.);
#219=ORIENTED_EDGE('',*,*,#166,.T.);
#220=ORIENTED_EDGE('',*,*,#163,.F.);
#221=ORIENTED_EDGE('',*,*,#165,.F.);
#222=ORIENTED_EDGE('',*,*,#164,.F.);
#223=ORIENTED_EDGE('',*,*,#166,.F.);
#224=ORIENTED_EDGE('',*,*,#167,.T.);
#225=ORIENTED_EDGE('',*,*,#168,.T.);
#226=ORIENTED_EDGE('',*,*,#169,.T.);
#227=ORIENTED_EDGE('',*,*,#167,.F.);
#228=ORIENTED_EDGE('',*,*,#170,.T.);
#229=ORIENTED_EDGE('',*,*,#171,.T.);
#230=ORIENTED_EDGE('',*,*,#168,.F.);
#231=ORIENTED_EDGE('',*,*,#169,.F.);
#232=ORIENTED_EDGE('',*,*,#171,.F.);
#233=ORIENTED_EDGE('',*,*,#172,.T.);
#234=ORIENTED_EDGE('',*,*,#173,.T.);
#235=ORIENTED_EDGE('',*,*,#174,.T.);
#236=ORIENTED_EDGE('',*,*,#175,.F.);
#237=ORIENTED_EDGE('',*,*,#176,.F.);
#238=ORIENTED_EDGE('',*,*,#173,.F.);
#239=ORIENTED_EDGE('',*,*,#174,.F.);
#240=ORIENTED_EDGE('',*,*,#177,.T.);
#241=ORIENTED_EDGE('',*,*,#178,.T.);
#242=ORIENTED_EDGE('',*,*,#179,.T.);
#243=ORIENTED_EDGE('',*,*,#177,.F.);
#244=ORIENTED_EDGE('',*,*,#179,.F.);
#245=ORIENTED_EDGE('',*,*,#178,.F.);
#246=ORIENTED_EDGE('',*,*,#180,.T.);
#247=ORIENTED_EDGE('',*,*,#181,.T.);
#248=ORIENTED_EDGE('',*,*,#182,.T.);
#249=ORIENTED_EDGE('',*,*,#180,.F.);
#250=ORIENTED_EDGE('',*,*,#182,.F.);
#251=ORIENTED_EDGE('',*,*,#181,.F.);
#252=ORIENTED_EDGE('',*,*,#183,.T.);
#253=ORIENTED_EDGE('',*,*,#161,.T.);
#254=ORIENTED_EDGE('',*,*,#160,.T.);
#255=ORIENTED_EDGE('',*,*,#183,.F.);
#256=ORIENTED_EDGE('',*,*,#175,.T.);
#257=ORIENTED_EDGE('',*,*,#184,.T.);
#258=ORIENTED_EDGE('',*,*,#185,.F.);
#259=ORIENTED_EDGE('',*,*,#186,.F.);
#260=ORIENTED_EDGE('',*,*,#184,.F.);
#261=ORIENTED_EDGE('',*,*,#176,.T.);
#262=ORIENTED_EDGE('',*,*,#185,.T.);
#263=ORIENTED_EDGE('',*,*,#186,.T.);
#264=ORIENTED_EDGE('',*,*,#151,.T.);
#265=ORIENTED_EDGE('',*,*,#152,.T.);
#266=ORIENTED_EDGE('',*,*,#170,.F.);
#267=ORIENTED_EDGE('',*,*,#187,.T.);
#268=ORIENTED_EDGE('',*,*,#155,.T.);
#269=ORIENTED_EDGE('',*,*,#154,.T.);
#270=ORIENTED_EDGE('',*,*,#187,.F.);
#271=ORIENTED_EDGE('',*,*,#172,.F.);
#272=TOROIDAL_SURFACE('',#311,33.,1.);
#273=TOROIDAL_SURFACE('',#329,21.9915728753,2.);
#274=TOROIDAL_SURFACE('',#352,35.8543043095,2.);
#275=ADVANCED_FACE('',(#45),#272,.T.);
#276=ADVANCED_FACE('',(#46),#43,.T.);
#277=ADVANCED_FACE('',(#47),#24,.F.);
#278=ADVANCED_FACE('',(#48),#25,.F.);
#279=ADVANCED_FACE('',(#49,#21),#26,.F.);
#280=ADVANCED_FACE('',(#50),#273,.T.);
#281=ADVANCED_FACE('',(#51),#20,.F.);
#282=ADVANCED_FACE('',(#52),#15,.F.);
#283=ADVANCED_FACE('',(#53),#16,.T.);
#284=ADVANCED_FACE('',(#54,#22),#27,.F.);
#285=ADVANCED_FACE('',(#55),#17,.T.);
#286=ADVANCED_FACE('',(#56),#274,.T.);
#287=ADVANCED_FACE('',(#57),#18,.T.);
#288=ADVANCED_FACE('',(#58),#44,.F.);
#289=ADVANCED_FACE('',(#59,#23),#28,.T.);
#290=ADVANCED_FACE('',(#60),#19,.F.);
#291=CLOSED_SHELL('',(#275,#276,#277,#278,#279,#280,#281,#282,#283,#284,
#285,#286,#287,#288,#289,#290));
#292=DERIVED_UNIT_ELEMENT(#294,1.);
#293=DERIVED_UNIT_ELEMENT(#568,3.);
#294=(
MASS_UNIT()
NAMED_UNIT(*)
SI_UNIT($,.GRAM.)
);
#295=DERIVED_UNIT((#292,#293));
#296=MEASURE_REPRESENTATION_ITEM('density measure',
POSITIVE_RATIO_MEASURE(1.),#295);
#297=PROPERTY_DEFINITION_REPRESENTATION(#302,#299);
#298=PROPERTY_DEFINITION_REPRESENTATION(#303,#300);
#299=REPRESENTATION('material name',(#301),#565);
#300=REPRESENTATION('density',(#296),#565);
#301=DESCRIPTIVE_REPRESENTATION_ITEM('Standard','Standard');
#302=PROPERTY_DEFINITION('material property','material name',#575);
#303=PROPERTY_DEFINITION('material property','density of part',#575);
#304=DATE_TIME_ROLE('creation_date');
#305=APPLIED_DATE_AND_TIME_ASSIGNMENT(#306,#304,(#575));
#306=DATE_AND_TIME(#307,#308);
#307=CALENDAR_DATE(2020,29,1);
#308=LOCAL_TIME(14,26,37.,#309);
#309=COORDINATED_UNIVERSAL_TIME_OFFSET(0,0,.BEHIND.);
#310=AXIS2_PLACEMENT_3D('placement',#473,#362,#363);
#311=AXIS2_PLACEMENT_3D('',#474,#364,#365);
#312=AXIS2_PLACEMENT_3D('',#477,#366,#367);
#313=AXIS2_PLACEMENT_3D('',#479,#368,#369);
#314=AXIS2_PLACEMENT_3D('',#481,#370,#371);
#315=AXIS2_PLACEMENT_3D('',#482,#372,#373);
#316=AXIS2_PLACEMENT_3D('',#483,#374,#375);
#317=AXIS2_PLACEMENT_3D('',#484,#376,#377);
#318=AXIS2_PLACEMENT_3D('',#487,#378,#379);
#319=AXIS2_PLACEMENT_3D('',#488,#380,#381);
#320=AXIS2_PLACEMENT_3D('',#490,#383,#384);
#321=AXIS2_PLACEMENT_3D('',#491,#385,#386);
#322=AXIS2_PLACEMENT_3D('',#494,#387,#388);
#323=AXIS2_PLACEMENT_3D('',#495,#389,#390);
#324=AXIS2_PLACEMENT_3D('',#496,#391,#392);
#325=AXIS2_PLACEMENT_3D('',#499,#393,#394);
#326=AXIS2_PLACEMENT_3D('',#500,#395,#396);
#327=AXIS2_PLACEMENT_3D('',#503,#397,#398);
#328=AXIS2_PLACEMENT_3D('',#504,#399,#400);
#329=AXIS2_PLACEMENT_3D('',#505,#401,#402);
#330=AXIS2_PLACEMENT_3D('',#508,#403,#404);
#331=AXIS2_PLACEMENT_3D('',#509,#405,#406);
#332=AXIS2_PLACEMENT_3D('',#510,#407,#408);
#333=AXIS2_PLACEMENT_3D('',#511,#409,#410);
#334=AXIS2_PLACEMENT_3D('',#513,#411,#412);
#335=AXIS2_PLACEMENT_3D('',#515,#413,#414);
#336=AXIS2_PLACEMENT_3D('',#517,#415,#416);
#337=AXIS2_PLACEMENT_3D('',#518,#417,#418);
#338=AXIS2_PLACEMENT_3D('',#519,#419,#420);
#339=AXIS2_PLACEMENT_3D('',#523,#422,#423);
#340=AXIS2_PLACEMENT_3D('',#524,#424,#425);
#341=AXIS2_PLACEMENT_3D('',#525,#426,#427);
#342=AXIS2_PLACEMENT_3D('',#528,#428,#429);
#343=AXIS2_PLACEMENT_3D('',#530,#431,#432);
#344=AXIS2_PLACEMENT_3D('',#531,#433,#434);
#345=AXIS2_PLACEMENT_3D('',#534,#435,#436);
#346=AXIS2_PLACEMENT_3D('',#535,#437,#438);
#347=AXIS2_PLACEMENT_3D('',#538,#439,#440);
#348=AXIS2_PLACEMENT_3D('',#539,#441,#442);
#349=AXIS2_PLACEMENT_3D('',#540,#443,#444);
#350=AXIS2_PLACEMENT_3D('',#544,#446,#447);
#351=AXIS2_PLACEMENT_3D('',#545,#448,#449);
#352=AXIS2_PLACEMENT_3D('',#546,#450,#451);
#353=AXIS2_PLACEMENT_3D('',#548,#452,#453);
#354=AXIS2_PLACEMENT_3D('',#550,#454,#455);
#355=AXIS2_PLACEMENT_3D('',#551,#456,#457);
#356=AXIS2_PLACEMENT_3D('',#552,#458,#459);
#357=AXIS2_PLACEMENT_3D('',#554,#461,#462);
#358=AXIS2_PLACEMENT_3D('',#558,#464,#465);
#359=AXIS2_PLACEMENT_3D('',#559,#466,#467);
#360=AXIS2_PLACEMENT_3D('',#560,#468,#469);
#361=AXIS2_PLACEMENT_3D('',#561,#470,#471);
#362=DIRECTION('axis',(0.,0.,1.));
#363=DIRECTION('refdir',(1.,0.,0.));
#364=DIRECTION('center_axis',(0.,2.22044604925031E-16,-1.));
#365=DIRECTION('ref_axis',(0.,1.,2.22044604925031E-16));
#366=DIRECTION('center_axis',(0.,-2.22044604925031E-16,1.));
#367=DIRECTION('ref_axis',(1.22464679914735E-16,-1.,-2.22044604925031E-16));
#368=DIRECTION('center_axis',(-1.,1.22464679914735E-16,2.71926214689378E-32));
#369=DIRECTION('ref_axis',(-1.22464679914735E-16,-1.,-2.20411924006465E-16));
#370=DIRECTION('center_axis',(0.,2.22044604925031E-16,-1.));
#371=DIRECTION('ref_axis',(1.22464679914735E-16,-1.,-2.22044604925031E-16));
#372=DIRECTION('center_axis',(0.,2.22044604925031E-16,-1.));
#373=DIRECTION('ref_axis',(1.22464679914735E-16,-1.,-2.22044604925031E-16));
#374=DIRECTION('center_axis',(0.,-2.22044604925031E-16,1.));
#375=DIRECTION('ref_axis',(1.22464679914735E-16,-1.,-2.22044604925031E-16));
#376=DIRECTION('center_axis',(0.,-2.22044604925031E-16,1.));
#377=DIRECTION('ref_axis',(0.,1.,2.22044604925031E-16));
#378=DIRECTION('center_axis',(0.,2.22044604925031E-16,-1.));
#379=DIRECTION('ref_axis',(0.,1.,2.22044604925031E-16));
#380=DIRECTION('center_axis',(0.,2.22044604925031E-16,-1.));
#381=DIRECTION('ref_axis',(0.,1.,2.22044604925031E-16));
#382=DIRECTION('',(0.,2.22044604925031E-16,-1.));
#383=DIRECTION('center_axis',(0.,-2.22044604925031E-16,1.));
#384=DIRECTION('ref_axis',(0.,-1.,-2.22044604925031E-16));
#385=DIRECTION('center_axis',(0.,2.22044604925031E-16,-1.));
#386=DIRECTION('ref_axis',(0.,1.,2.22044604925031E-16));
#387=DIRECTION('center_axis',(0.,2.22044604925031E-16,-1.));
#388=DIRECTION('ref_axis',(0.,1.,2.22044604925031E-16));
#389=DIRECTION('center_axis',(0.,2.22044604925031E-16,-1.));
#390=DIRECTION('ref_axis',(0.,1.,2.22044604925031E-16));
#391=DIRECTION('center_axis',(0.,2.22044604925031E-16,-1.));
#392=DIRECTION('ref_axis',(0.,1.,2.22044604925031E-16));
#393=DIRECTION('center_axis',(0.,2.22044604925031E-16,-1.));
#394=DIRECTION('ref_axis',(0.,1.,2.22044604925031E-16));
#395=DIRECTION('center_axis',(0.,2.22044604925031E-16,-1.));
#396=DIRECTION('ref_axis',(0.,1.,2.22044604925031E-16));
#397=DIRECTION('center_axis',(0.,2.22044604925031E-16,-1.));
#398=DIRECTION('ref_axis',(0.,1.,2.22044604925031E-16));
#399=DIRECTION('center_axis',(0.,2.22044604925031E-16,-1.));
#400=DIRECTION('ref_axis',(0.,1.,2.22044604925031E-16));
#401=DIRECTION('center_axis',(0.,2.22044604925031E-16,-1.));
#402=DIRECTION('ref_axis',(0.,1.,1.48081732584449E-16));
#403=DIRECTION('center_axis',(0.,2.22044604925031E-16,-1.));
#404=DIRECTION('ref_axis',(0.,1.,2.22044604925031E-16));
#405=DIRECTION('center_axis',(0.,2.22044604925031E-16,-1.));
#406=DIRECTION('ref_axis',(0.,1.,2.22044604925031E-16));
#407=DIRECTION('center_axis',(-1.,1.22464679914735E-16,2.71926214689378E-32));
#408=DIRECTION('ref_axis',(-1.22464679914735E-16,-1.,-1.85102165730562E-16));
#409=DIRECTION('center_axis',(1.22464679914735E-16,2.22044604925031E-16,
-1.));
#410=DIRECTION('ref_axis',(1.,0.,0.));
#411=DIRECTION('center_axis',(-1.22464679914735E-16,-1.,-2.22044604925031E-16));
#412=DIRECTION('ref_axis',(-1.,1.22464679914735E-16,0.));
#413=DIRECTION('center_axis',(0.,2.22044604925031E-16,-1.));
#414=DIRECTION('ref_axis',(0.,1.,2.22044604925031E-16));
#415=DIRECTION('center_axis',(0.,2.22044604925031E-16,-1.));
#416=DIRECTION('ref_axis',(0.,1.,2.22044604925031E-16));
#417=DIRECTION('center_axis',(0.,2.22044604925031E-16,-1.));
#418=DIRECTION('ref_axis',(0.,1.,2.22044604925031E-16));
#419=DIRECTION('center_axis',(0.,2.22044604925031E-16,-1.));
#420=DIRECTION('ref_axis',(0.,1.,2.22044604925031E-16));
#421=DIRECTION('',(-1.06735001383576E-17,-0.0871557427479404,-0.996194698091721));
#422=DIRECTION('center_axis',(0.,2.22044604925031E-16,-1.));
#423=DIRECTION('ref_axis',(0.,1.,2.22044604925031E-16));
#424=DIRECTION('center_axis',(0.,2.22044604925031E-16,-1.));
#425=DIRECTION('ref_axis',(0.,1.,2.22044604925031E-16));
#426=DIRECTION('center_axis',(0.,-2.22044604925031E-16,1.));
#427=DIRECTION('ref_axis',(0.,-1.,-2.22044604925031E-16));
#428=DIRECTION('center_axis',(0.,2.22044604925031E-16,-1.));
#429=DIRECTION('ref_axis',(0.,1.,2.22044604925031E-16));
#430=DIRECTION('',(1.14995793068152E-16,-0.939011910603259,-0.343884619814869));
#431=DIRECTION('center_axis',(0.,2.22044604925031E-16,-1.));
#432=DIRECTION('ref_axis',(0.,1.,2.22044604925031E-16));
#433=DIRECTION('center_axis',(0.,-2.22044604925031E-16,1.));
#434=DIRECTION('ref_axis',(0.,-1.,-2.22044604925031E-16));
#435=DIRECTION('center_axis',(0.,2.22044604925031E-16,-1.));
#436=DIRECTION('ref_axis',(0.,1.,2.22044604925031E-16));
#437=DIRECTION('center_axis',(0.,2.22044604925031E-16,-1.));
#438=DIRECTION('ref_axis',(0.,1.,2.22044604925031E-16));
#439=DIRECTION('center_axis',(0.,2.22044604925031E-16,-1.));
#440=DIRECTION('ref_axis',(0.,1.,2.22044604925031E-16));
#441=DIRECTION('center_axis',(0.,2.22044604925031E-16,-1.));
#442=DIRECTION('ref_axis',(0.,1.,2.22044604925031E-16));
#443=DIRECTION('center_axis',(0.,2.22044604925031E-16,-1.));
#444=DIRECTION('ref_axis',(0.,1.,2.22044604925031E-16));
#445=DIRECTION('',(4.27395568797542E-18,0.0348994966626385,0.999390827020488));
#446=DIRECTION('center_axis',(0.,2.22044604925031E-16,-1.));
#447=DIRECTION('ref_axis',(0.,1.,2.22044604925031E-16));
#448=DIRECTION('center_axis',(0.,2.22044604925031E-16,-1.));
#449=DIRECTION('ref_axis',(0.,1.,2.22044604925031E-16));
#450=DIRECTION('center_axis',(0.,2.22044604925031E-16,-1.));
#451=DIRECTION('ref_axis',(0.,1.,2.11167684180502E-16));
#452=DIRECTION('center_axis',(-1.,1.22464679914735E-16,2.71926214689378E-32));
#453=DIRECTION('ref_axis',(-1.22464679914735E-16,-1.,-2.19966337688023E-16));
#454=DIRECTION('center_axis',(0.,2.22044604925031E-16,-1.));
#455=DIRECTION('ref_axis',(0.,1.,2.22044604925031E-16));
#456=DIRECTION('center_axis',(0.,2.22044604925031E-16,-1.));
#457=DIRECTION('ref_axis',(0.,1.,2.22044604925031E-16));
#458=DIRECTION('center_axis',(0.,2.22044604925031E-16,-1.));
#459=DIRECTION('ref_axis',(0.,1.,2.22044604925031E-16));
#460=DIRECTION('',(8.65956056237703E-17,0.707106781188352,0.707106781184743));
#461=DIRECTION('center_axis',(0.,-2.22044604925031E-16,1.));
#462=DIRECTION('ref_axis',(0.,1.,2.22044604925031E-16));
#463=DIRECTION('',(0.,-2.22044604925031E-16,1.));
#464=DIRECTION('center_axis',(0.,2.22044604925031E-16,-1.));
#465=DIRECTION('ref_axis',(0.,1.,2.22044604925031E-16));
#466=DIRECTION('center_axis',(0.,2.22044604925031E-16,-1.));
#467=DIRECTION('ref_axis',(0.,1.,2.22044604925031E-16));
#468=DIRECTION('center_axis',(0.,2.22044604925031E-16,-1.));
#469=DIRECTION('ref_axis',(0.,1.,2.22044604925031E-16));
#470=DIRECTION('center_axis',(0.,2.22044604925031E-16,-1.));
#471=DIRECTION('ref_axis',(0.,1.,2.22044604925031E-16));
#472=DIRECTION('',(-2.12657684958261E-17,-0.173648177667489,-0.98480775301211));
#473=CARTESIAN_POINT('',(0.,0.,0.));
#474=CARTESIAN_POINT('Origin',(0.,2.22044604925031E-16,-1.));
#475=CARTESIAN_POINT('',(-8.08266887437253E-15,33.,-1.99999999999999));
#476=CARTESIAN_POINT('',(-4.04133443718627E-15,-33.,-2.00000000000001));
#477=CARTESIAN_POINT('Origin',(0.,4.44089209850063E-16,-2.));
#478=CARTESIAN_POINT('',(-4.163799117101E-15,-34.,-1.00000000000001));
#479=CARTESIAN_POINT('Origin',(-4.04133443718627E-15,-33.,-1.00000000000001));
#480=CARTESIAN_POINT('',(0.,34.,-0.999999999999993));
#481=CARTESIAN_POINT('Origin',(0.,2.22044604925031E-16,-1.));
#482=CARTESIAN_POINT('Origin',(0.,2.22044604925031E-16,-1.));
#483=CARTESIAN_POINT('Origin',(0.,4.44089209850063E-16,-2.));
#484=CARTESIAN_POINT('Origin',(0.,4.44089209850063E-16,-2.));
#485=CARTESIAN_POINT('',(0.,34.,4.99000000000001));
#486=CARTESIAN_POINT('',(4.163799117101E-15,-34.,4.98999999999999));
#487=CARTESIAN_POINT('Origin',(0.,-1.10800257857591E-15,4.99));
#488=CARTESIAN_POINT('Origin',(0.,-1.10800257857591E-15,4.99));
#489=CARTESIAN_POINT('',(4.163799117101E-15,-34.,-2.00000000000001));
#490=CARTESIAN_POINT('Origin',(34.,4.44089209850063E-16,-2.));
#491=CARTESIAN_POINT('Origin',(0.,-1.11022302462516E-16,0.5));
#492=CARTESIAN_POINT('',(0.,11.56,0.500000000000003));
#493=CARTESIAN_POINT('',(-1.41569169981713E-15,-11.5600000000228,0.500000000004017));
#494=CARTESIAN_POINT('Origin',(0.,-1.11022302462516E-16,0.5));
#495=CARTESIAN_POINT('Origin',(0.,-1.11022302462516E-16,0.5));
#496=CARTESIAN_POINT('Origin',(0.,-4.44089209850063E-15,20.));
#497=CARTESIAN_POINT('',(0.,21.9915728752538,20.));
#498=CARTESIAN_POINT('',(-2.69319093299519E-15,-21.9915728753,20.));
#499=CARTESIAN_POINT('Origin',(0.,-4.44089209850063E-15,20.));
#500=CARTESIAN_POINT('Origin',(0.,-4.44089209850063E-15,20.));
#501=CARTESIAN_POINT('',(0.,11.3026545554573,20.));
#502=CARTESIAN_POINT('',(-11.3026545555,-3.05671612617449E-15,20.));
#503=CARTESIAN_POINT('Origin',(0.,-4.44089209850063E-15,20.));
#504=CARTESIAN_POINT('Origin',(0.,-4.44089209850063E-15,20.));
#505=CARTESIAN_POINT('Origin',(0.,-3.99680288865056E-15,18.));
#506=CARTESIAN_POINT('',(0.,23.4057864376269,19.4142135623731));
#507=CARTESIAN_POINT('',(-2.86638214423334E-15,-23.4057864376,19.4142135623731));
#508=CARTESIAN_POINT('Origin',(0.,-4.31082138038732E-15,19.4142135623731));
#509=CARTESIAN_POINT('Origin',(0.,-4.31082138038732E-15,19.4142135623731));
#510=CARTESIAN_POINT('Origin',(-2.69319093299519E-15,-21.9915728753,18.));
#511=CARTESIAN_POINT('Origin',(5.72458747072346E-14,-8.10462807976362E-15,
36.4999999999999));
#512=CARTESIAN_POINT('',(-6.5016441907,-3.1087178848979E-15,17.5862847960206));
#513=CARTESIAN_POINT('Origin',(5.72458747072346E-14,-8.10462807976362E-15,
36.4999999999999));
#514=CARTESIAN_POINT('',(0.,6.50164419072275,17.5862847960206));
#515=CARTESIAN_POINT('Origin',(0.,-3.90493965963148E-15,17.5862847960206));
#516=CARTESIAN_POINT('',(-7.96221774733574E-16,-6.50164419070001,17.5862847960206));
#517=CARTESIAN_POINT('Origin',(0.,-3.90493965963148E-15,17.5862847960206));
#518=CARTESIAN_POINT('Origin',(0.,-3.90493965963148E-15,17.5862847960206));
#519=CARTESIAN_POINT('Origin',(0.,-3.90493965963148E-15,17.5862847960206));
#520=CARTESIAN_POINT('',(-8.6153902319761E-16,-7.03499999997916,11.4899999999982));
#521=CARTESIAN_POINT('',(-7.96221774733574E-16,-6.50164419070001,17.5862847960206));
#522=CARTESIAN_POINT('',(0.,7.035,11.49));
#523=CARTESIAN_POINT('Origin',(0.,-2.55129251058861E-15,11.49));
#524=CARTESIAN_POINT('Origin',(0.,-2.55129251058861E-15,11.49));
#525=CARTESIAN_POINT('Origin',(0.,-2.55129251058861E-15,11.49));
#526=CARTESIAN_POINT('',(-1.15915703205318E-15,-9.4652354692,12.38));
#527=CARTESIAN_POINT('',(-1.1591570320553E-15,9.46523546921735,12.3799999999526));
#528=CARTESIAN_POINT('Origin',(0.,-2.74891220897189E-15,12.38));
#529=CARTESIAN_POINT('',(-8.61539023200163E-16,7.035,11.49));
#530=CARTESIAN_POINT('Origin',(0.,-2.74891220897189E-15,12.38));
#531=CARTESIAN_POINT('Origin',(38.,0.,0.));
#532=CARTESIAN_POINT('',(0.,38.,8.43769498715119E-15));
#533=CARTESIAN_POINT('',(-4.65365783673571E-15,-37.9999999998021,-6.91946500097629E-12));
#534=CARTESIAN_POINT('Origin',(0.,0.,0.));
#535=CARTESIAN_POINT('Origin',(0.,0.,0.));
#536=CARTESIAN_POINT('',(0.,34.5,7.66053886991358E-15));
#537=CARTESIAN_POINT('',(4.22503145705837E-15,-34.5,-7.66053886991357E-15));
#538=CARTESIAN_POINT('Origin',(0.,0.,0.));
#539=CARTESIAN_POINT('Origin',(0.,0.,0.));
#540=CARTESIAN_POINT('Origin',(0.,-9.34156654068126E-16,4.20706755916688));
#541=CARTESIAN_POINT('',(-4.63566605630499E-15,-37.8530859635,4.20706755916687));
#542=CARTESIAN_POINT('',(-4.63566605630499E-15,-37.8530859635,4.20706755916687));
#543=CARTESIAN_POINT('',(0.,37.8530859635301,4.20706755916689));
#544=CARTESIAN_POINT('Origin',(0.,-9.34156654068126E-16,4.20706755916688));
#545=CARTESIAN_POINT('Origin',(0.,-9.34156654068126E-16,4.20706755916688));
#546=CARTESIAN_POINT('Origin',(0.,-9.18658164153336E-16,4.13726856576183));
#547=CARTESIAN_POINT('',(-4.56407711207883E-15,-37.2685178719,5.55148212813495));
#548=CARTESIAN_POINT('Origin',(-4.39088590082843E-15,-35.8543043095,4.13726856576182));
#549=CARTESIAN_POINT('',(0.,37.268517871865,5.55148212813497));
#550=CARTESIAN_POINT('Origin',(0.,-1.2326766558901E-15,5.55148212813496));
#551=CARTESIAN_POINT('Origin',(0.,-1.2326766558901E-15,5.55148212813496));
#552=CARTESIAN_POINT('Origin',(0.,-4.31082138038732E-15,19.4142135623731));
#553=CARTESIAN_POINT('',(-2.86638214423334E-15,-23.4057864376,19.4142135623731));
#554=CARTESIAN_POINT('Origin',(0.,0.,0.));
#555=CARTESIAN_POINT('',(4.22503145705837E-15,-34.5,4.98999999999999));
#556=CARTESIAN_POINT('',(4.22503145705837E-15,-34.5,-7.66053886991357E-15));
#557=CARTESIAN_POINT('',(0.,34.5,4.99000000000001));
#558=CARTESIAN_POINT('Origin',(0.,-1.10800257857591E-15,4.99));
#559=CARTESIAN_POINT('Origin',(0.,-1.10800257857591E-15,4.99));
#560=CARTESIAN_POINT('Origin',(14.74,-1.10800257857591E-15,4.99));
#561=CARTESIAN_POINT('Origin',(0.,-2.74891220897189E-15,12.38));
#562=CARTESIAN_POINT('',(-1.15915703205318E-15,-9.4652354692,12.38));
#563=UNCERTAINTY_MEASURE_WITH_UNIT(LENGTH_MEASURE(0.01),#567,
'DISTANCE_ACCURACY_VALUE',
'Maximum model space distance between geometric entities at asserted c
onnectivities');
#564=UNCERTAINTY_MEASURE_WITH_UNIT(LENGTH_MEASURE(0.01),#567,
'DISTANCE_ACCURACY_VALUE',
'Maximum model space distance between geometric entities at asserted c
onnectivities');
#565=(
GEOMETRIC_REPRESENTATION_CONTEXT(3)
GLOBAL_UNCERTAINTY_ASSIGNED_CONTEXT((#563))
GLOBAL_UNIT_ASSIGNED_CONTEXT((#567,#569,#570))
REPRESENTATION_CONTEXT('','3D')
);
#566=(
GEOMETRIC_REPRESENTATION_CONTEXT(3)
GLOBAL_UNCERTAINTY_ASSIGNED_CONTEXT((#564))
GLOBAL_UNIT_ASSIGNED_CONTEXT((#567,#569,#570))
REPRESENTATION_CONTEXT('','3D')
);
#567=(
LENGTH_UNIT()
NAMED_UNIT(*)
SI_UNIT(.MILLI.,.METRE.)
);
#568=(
LENGTH_UNIT()
NAMED_UNIT(*)
SI_UNIT(.CENTI.,.METRE.)
);
#569=(
NAMED_UNIT(*)
PLANE_ANGLE_UNIT()
SI_UNIT($,.RADIAN.)
);
#570=(
NAMED_UNIT(*)
SI_UNIT($,.STERADIAN.)
SOLID_ANGLE_UNIT()
);
#571=SHAPE_DEFINITION_REPRESENTATION(#572,#573);
#572=PRODUCT_DEFINITION_SHAPE('',$,#575);
#573=SHAPE_REPRESENTATION('',(#310),#565);
#574=PRODUCT_DEFINITION_CONTEXT('part definition',#579,'design');
#575=PRODUCT_DEFINITION('203600503',
'203600503 Trapezteller 80 mit Anti-Slip-Platte',#576,#574);
#576=PRODUCT_DEFINITION_FORMATION('',$,#581);
#577=PRODUCT_RELATED_PRODUCT_CATEGORY(
'203600503 Trapezteller 80 mit Anti-Slip-Platte',
'203600503 Trapezteller 80 mit Anti-Slip-Platte',(#581));
#578=APPLICATION_PROTOCOL_DEFINITION('international standard',
'automotive_design',2009,#579);
#579=APPLICATION_CONTEXT(
'Core Data for Automotive Mechanical Design Process');
#580=PRODUCT_CONTEXT('part definition',#579,'mechanical');
#581=PRODUCT('203600503',
'203600503 Trapezteller 80 mit Anti-Slip-Platte',
'Trapezteller 80 mit Anti-Slip-Platte',(#580));
#582=PRESENTATION_STYLE_ASSIGNMENT((#583));
#583=SURFACE_STYLE_USAGE(.BOTH.,#586);
#584=SURFACE_STYLE_RENDERING_WITH_PROPERTIES($,#590,(#585));
#585=SURFACE_STYLE_TRANSPARENT(0.);
#586=SURFACE_SIDE_STYLE('',(#587,#584));
#587=SURFACE_STYLE_FILL_AREA(#588);
#588=FILL_AREA_STYLE('',(#589));
#589=FILL_AREA_STYLE_COLOUR('',#590);
#590=COLOUR_RGB('',0.,0.,0.);
ENDSEC;
END-ISO-10303-21;
