ISO-10303-21;
HEADER;
/****************************************************************
 * Generated by software with PDE/Lib inside                    *
 * PDElib Version v51a, created 12/06/2005 Tue                  *
 * International Technegroup Inc. (www.iti-oh.com)              *
 ****************************************************************/
FILE_DESCRIPTION((''),'2;1');
FILE_NAME('SZ0916N.stp','2009-07-27T13:52:33',(''),(''),'Mechanical Desktop 2007','Mechanical Desktop 2007',', , ');
FILE_SCHEMA(('CONFIG_CONTROL_DESIGN'));
ENDSEC;
DATA;
#8=(NAMED_UNIT(*)PLANE_ANGLE_UNIT()SI_UNIT($,.RADIAN.));
#9=DIMENSIONAL_EXPONENTS(0.0,0.0,0.0,0.0,0.0,0.0,0.0);
#10=PLANE_ANGLE_MEASURE_WITH_UNIT(PLANE_ANGLE_MEASURE(0.017453292500000),#8);
#14=(CONVERSION_BASED_UNIT('DEGREE',#10)NAMED_UNIT(#9)PLANE_ANGLE_UNIT());
#18=(NAMED_UNIT(*)SI_UNIT($,.STERADIAN.)SOLID_ANGLE_UNIT());
#22=(LENGTH_UNIT()NAMED_UNIT(*)SI_UNIT(.MILLI.,.METRE.));
#23=UNCERTAINTY_MEASURE_WITH_UNIT(LENGTH_MEASURE(0.000001000000000),#22,'DISTANCE_ACCURACY_VALUE','');
#28=(GEOMETRIC_REPRESENTATION_CONTEXT(3)GLOBAL_UNCERTAINTY_ASSIGNED_CONTEXT((#23))GLOBAL_UNIT_ASSIGNED_CONTEXT((#14,#18,#22))REPRESENTATION_CONTEXT('None','None'));
#29=APPLICATION_CONTEXT('CONFIGURATION CONTROLLED 3D DESIGNS OF MECHANICAL PARTS AND ASSEMBLIES');
#30=APPLICATION_PROTOCOL_DEFINITION('INTERNATIONAL STANDARD','config_control_design',1995,#29);
#31=MECHANICAL_CONTEXT('3D Mechanical Parts',#29,'mechanical');
#32=PRODUCT('SZ0916N','SZ0916N',' ',(#31));
#33=PRODUCT_RELATED_PRODUCT_CATEGORY('detail',$,(#32));
#34=PRODUCT_CATEGORY('part',$);
#35=PRODUCT_CATEGORY_RELATIONSHIP('None','None',#34,#33);
#36=PERSON('1','Design','Joe',$,$,$);
#37=ORGANIZATION($,'None','None');
#38=PERSON_AND_ORGANIZATION(#36,#37);
#39=PERSON_AND_ORGANIZATION_ROLE('design_owner');
#40=CC_DESIGN_PERSON_AND_ORGANIZATION_ASSIGNMENT(#38,#39,(#32));
#41=PRODUCT_DEFINITION_FORMATION_WITH_SPECIFIED_SOURCE('None','None',#32,.NOT_KNOWN.);
#42=PERSON('2','Creator','Joe',$,$,$);
#43=ORGANIZATION($,'None','None');
#44=PERSON_AND_ORGANIZATION(#42,#43);
#45=PERSON_AND_ORGANIZATION_ROLE('creator');
#46=CC_DESIGN_PERSON_AND_ORGANIZATION_ASSIGNMENT(#44,#45,(#41));
#47=PERSON('3','Supplier','Joe',$,$,$);
#48=ORGANIZATION($,'None','None');
#49=PERSON_AND_ORGANIZATION(#47,#48);
#50=PERSON_AND_ORGANIZATION_ROLE('design_supplier');
#51=CC_DESIGN_PERSON_AND_ORGANIZATION_ASSIGNMENT(#49,#50,(#41));
#52=APPROVAL_STATUS('approved');
#53=APPROVAL(#52,'None');
#54=PERSON('4','Approver','Joe',$,$,$);
#55=ORGANIZATION($,'None','None');
#56=PERSON_AND_ORGANIZATION(#54,#55);
#57=APPROVAL_ROLE('approver');
#58=APPROVAL_PERSON_ORGANIZATION(#56,#53,#57);
#59=COORDINATED_UNIVERSAL_TIME_OFFSET(8,$,.BEHIND.);
#60=CALENDAR_DATE(1996,29,5);
#61=LOCAL_TIME(12,0,0.0,#59);
#62=DATE_AND_TIME(#60,#61);
#63=APPROVAL_DATE_TIME(#62,#53);
#64=CC_DESIGN_APPROVAL(#53,(#41));
#65=SECURITY_CLASSIFICATION_LEVEL('unclassified');
#66=SECURITY_CLASSIFICATION('security','None',#65);
#67=CC_DESIGN_SECURITY_CLASSIFICATION(#66,(#41));
#68=APPROVAL_STATUS('approved');
#69=APPROVAL(#68,'None');
#70=PERSON('5','Approver','Joe',$,$,$);
#71=ORGANIZATION($,'None','None');
#72=PERSON_AND_ORGANIZATION(#70,#71);
#73=APPROVAL_ROLE('approver');
#74=APPROVAL_PERSON_ORGANIZATION(#72,#69,#73);
#75=COORDINATED_UNIVERSAL_TIME_OFFSET(8,$,.BEHIND.);
#76=CALENDAR_DATE(1996,29,5);
#77=LOCAL_TIME(12,0,0.0,#75);
#78=DATE_AND_TIME(#76,#77);
#79=APPROVAL_DATE_TIME(#78,#69);
#80=CC_DESIGN_APPROVAL(#69,(#66));
#81=PERSON('6','Classifier','Joe',$,$,$);
#82=ORGANIZATION($,'None','None');
#83=PERSON_AND_ORGANIZATION(#81,#82);
#84=PERSON_AND_ORGANIZATION_ROLE('classification_officer');
#85=CC_DESIGN_PERSON_AND_ORGANIZATION_ASSIGNMENT(#83,#84,(#66));
#86=COORDINATED_UNIVERSAL_TIME_OFFSET(8,$,.BEHIND.);
#87=CALENDAR_DATE(1996,29,5);
#88=LOCAL_TIME(12,0,0.0,#86);
#89=DATE_AND_TIME(#87,#88);
#90=DATE_TIME_ROLE('classification_date');
#91=CC_DESIGN_DATE_AND_TIME_ASSIGNMENT(#89,#90,(#66));
#92=DESIGN_CONTEXT('Design Context',#29,'design');
#93=PRODUCT_DEFINITION('None','None',#41,#92);
#94=PERSON('7','Creator','Joe',$,$,$);
#95=ORGANIZATION($,'None','None');
#96=PERSON_AND_ORGANIZATION(#94,#95);
#97=PERSON_AND_ORGANIZATION_ROLE('creator');
#98=CC_DESIGN_PERSON_AND_ORGANIZATION_ASSIGNMENT(#96,#97,(#93));
#99=COORDINATED_UNIVERSAL_TIME_OFFSET(8,$,.BEHIND.);
#100=CALENDAR_DATE(1996,29,5);
#101=LOCAL_TIME(12,0,0.0,#99);
#102=DATE_AND_TIME(#100,#101);
#103=DATE_TIME_ROLE('creation_date');
#104=CC_DESIGN_DATE_AND_TIME_ASSIGNMENT(#102,#103,(#93));
#105=APPROVAL_STATUS('approved');
#106=APPROVAL(#105,'None');
#107=PERSON('8','Approver','Joe',$,$,$);
#108=ORGANIZATION($,'None','None');
#109=PERSON_AND_ORGANIZATION(#107,#108);
#110=APPROVAL_ROLE('approver');
#111=APPROVAL_PERSON_ORGANIZATION(#109,#106,#110);
#112=COORDINATED_UNIVERSAL_TIME_OFFSET(8,$,.BEHIND.);
#113=CALENDAR_DATE(1996,29,5);
#114=LOCAL_TIME(12,0,0.0,#112);
#115=DATE_AND_TIME(#113,#114);
#116=APPROVAL_DATE_TIME(#115,#106);
#117=CC_DESIGN_APPROVAL(#106,(#93));
#118=CARTESIAN_POINT('NONE',(0.0,0.0,0.0));
#119=DIRECTION('NONE',(0.0,0.0,1.0));
#120=DIRECTION('NONE',(1.0,0.0,0.0));
#121=AXIS2_PLACEMENT_3D('NONE',#118,#119,#120);
#122=SHAPE_REPRESENTATION('SR1',(#121),#28);
#123=PRODUCT_DEFINITION_SHAPE('PDS1','Test Part',#93);
#124=SHAPE_DEFINITION_REPRESENTATION(#123,#122);
#125=CARTESIAN_POINT('',(165.085056349549860,322.051043727618380,32.500000000000000));
#126=DIRECTION('',(0.0,1.0,0.0));
#127=DIRECTION('',(0.0,0.0,-1.0));
#128=AXIS2_PLACEMENT_3D('',#125,#126,#127);
#129=CYLINDRICAL_SURFACE('',#128,3.250000000000000);
#130=CARTESIAN_POINT('',(165.085056349549860,252.769011424863270,29.250000000000000));
#131=VERTEX_POINT('',#130);
#132=CARTESIAN_POINT('',(165.085056349549860,257.769011424863270,29.250000000000000));
#133=VERTEX_POINT('',#132);
#134=CARTESIAN_POINT('',(165.085056349549860,252.769011424863270,29.250000000000000));
#135=DIRECTION('',(0.0,1.0,0.0));
#136=VECTOR('',#135,5.0);
#137=LINE('',#134,#136);
#138=EDGE_CURVE('',#131,#133,#137,.T.);
#139=ORIENTED_EDGE('',*,*,#138,.F.);
#140=CARTESIAN_POINT('',(165.085056349549860,252.769011424863270,35.750000000000000));
#141=VERTEX_POINT('',#140);
#142=CARTESIAN_POINT('',(165.085056349549860,252.769011424863270,32.500000000000000));
#143=DIRECTION('',(0.0,1.0,0.0));
#144=DIRECTION('',(0.0,0.0,-1.0));
#145=AXIS2_PLACEMENT_3D('',#142,#143,#144);
#146=CIRCLE('',#145,3.250000000000000);
#147=EDGE_CURVE('',#141,#131,#146,.T.);
#148=ORIENTED_EDGE('',*,*,#147,.F.);
#149=CARTESIAN_POINT('',(165.085056349549890,257.769011424863270,35.750000000000000));
#150=VERTEX_POINT('',#149);
#151=CARTESIAN_POINT('',(165.085056349549860,252.769011424863270,35.750000000000000));
#152=DIRECTION('',(0.0,1.0,0.0));
#153=VECTOR('',#152,5.0);
#154=LINE('',#151,#153);
#155=EDGE_CURVE('',#141,#150,#154,.T.);
#156=ORIENTED_EDGE('',*,*,#155,.T.);
#157=CARTESIAN_POINT('',(165.085056349549860,257.769011424863270,32.500000000000000));
#158=DIRECTION('',(0.0,-1.0,0.0));
#159=DIRECTION('',(0.0,0.0,-1.0));
#160=AXIS2_PLACEMENT_3D('',#157,#158,#159);
#161=CIRCLE('',#160,3.250000000000000);
#162=EDGE_CURVE('',#133,#150,#161,.T.);
#163=ORIENTED_EDGE('',*,*,#162,.F.);
#164=EDGE_LOOP('',(#139,#148,#156,#163));
#165=FACE_OUTER_BOUND('',#164,.T.);
#166=ADVANCED_FACE('',(#165),#129,.F.);
#167=CARTESIAN_POINT('',(165.085056349549860,322.051043727618380,12.500000000000000));
#168=DIRECTION('',(0.0,1.0,0.0));
#169=DIRECTION('',(0.0,0.0,-1.0));
#170=AXIS2_PLACEMENT_3D('',#167,#168,#169);
#171=CYLINDRICAL_SURFACE('',#170,3.250000000000000);
#172=CARTESIAN_POINT('',(165.085056349549860,252.769011424863270,9.250000000000000));
#173=VERTEX_POINT('',#172);
#174=CARTESIAN_POINT('',(165.085056349549860,257.769011424863270,9.250000000000000));
#175=VERTEX_POINT('',#174);
#176=CARTESIAN_POINT('',(165.085056349549860,252.769011424863270,9.250000000000000));
#177=DIRECTION('',(0.0,1.0,0.0));
#178=VECTOR('',#177,5.0);
#179=LINE('',#176,#178);
#180=EDGE_CURVE('',#173,#175,#179,.T.);
#181=ORIENTED_EDGE('',*,*,#180,.F.);
#182=CARTESIAN_POINT('',(165.085056349549860,252.769011424863270,15.750000000000000));
#183=VERTEX_POINT('',#182);
#184=CARTESIAN_POINT('',(165.085056349549860,252.769011424863270,12.500000000000000));
#185=DIRECTION('',(0.0,1.0,0.0));
#186=DIRECTION('',(0.0,0.0,-1.0));
#187=AXIS2_PLACEMENT_3D('',#184,#185,#186);
#188=CIRCLE('',#187,3.250000000000000);
#189=EDGE_CURVE('',#183,#173,#188,.T.);
#190=ORIENTED_EDGE('',*,*,#189,.F.);
#191=CARTESIAN_POINT('',(165.085056349549890,257.769011424863270,15.750000000000000));
#192=VERTEX_POINT('',#191);
#193=CARTESIAN_POINT('',(165.085056349549860,252.769011424863270,15.750000000000000));
#194=DIRECTION('',(0.0,1.0,0.0));
#195=VECTOR('',#194,5.0);
#196=LINE('',#193,#195);
#197=EDGE_CURVE('',#183,#192,#196,.T.);
#198=ORIENTED_EDGE('',*,*,#197,.T.);
#199=CARTESIAN_POINT('',(165.085056349549860,257.769011424863270,12.500000000000000));
#200=DIRECTION('',(0.0,-1.0,0.0));
#201=DIRECTION('',(0.0,0.0,-1.0));
#202=AXIS2_PLACEMENT_3D('',#199,#200,#201);
#203=CIRCLE('',#202,3.250000000000000);
#204=EDGE_CURVE('',#175,#192,#203,.T.);
#205=ORIENTED_EDGE('',*,*,#204,.F.);
#206=EDGE_LOOP('',(#181,#190,#198,#205));
#207=FACE_OUTER_BOUND('',#206,.T.);
#208=ADVANCED_FACE('',(#207),#171,.F.);
#209=CARTESIAN_POINT('',(165.085056349549860,322.051043727618380,12.500000000000000));
#210=DIRECTION('',(0.0,1.0,0.0));
#211=DIRECTION('',(0.0,0.0,-1.0));
#212=AXIS2_PLACEMENT_3D('',#209,#210,#211);
#213=CYLINDRICAL_SURFACE('',#212,3.250000000000000);
#214=ORIENTED_EDGE('',*,*,#180,.T.);
#215=CARTESIAN_POINT('',(165.085056349549860,257.769011424863270,12.500000000000000));
#216=DIRECTION('',(0.0,-1.0,0.0));
#217=DIRECTION('',(0.0,0.0,-1.0));
#218=AXIS2_PLACEMENT_3D('',#215,#216,#217);
#219=CIRCLE('',#218,3.250000000000000);
#220=EDGE_CURVE('',#192,#175,#219,.T.);
#221=ORIENTED_EDGE('',*,*,#220,.F.);
#222=ORIENTED_EDGE('',*,*,#197,.F.);
#223=CARTESIAN_POINT('',(165.085056349549860,252.769011424863270,12.500000000000000));
#224=DIRECTION('',(0.0,1.0,0.0));
#225=DIRECTION('',(0.0,0.0,-1.0));
#226=AXIS2_PLACEMENT_3D('',#223,#224,#225);
#227=CIRCLE('',#226,3.250000000000000);
#228=EDGE_CURVE('',#173,#183,#227,.T.);
#229=ORIENTED_EDGE('',*,*,#228,.F.);
#230=EDGE_LOOP('',(#214,#221,#222,#229));
#231=FACE_OUTER_BOUND('',#230,.T.);
#232=ADVANCED_FACE('',(#231),#213,.F.);
#233=CARTESIAN_POINT('',(165.085056349549860,322.051043727618380,32.500000000000000));
#234=DIRECTION('',(0.0,1.0,0.0));
#235=DIRECTION('',(0.0,0.0,-1.0));
#236=AXIS2_PLACEMENT_3D('',#233,#234,#235);
#237=CYLINDRICAL_SURFACE('',#236,3.250000000000000);
#238=ORIENTED_EDGE('',*,*,#138,.T.);
#239=CARTESIAN_POINT('',(165.085056349549860,257.769011424863270,32.500000000000000));
#240=DIRECTION('',(0.0,-1.0,0.0));
#241=DIRECTION('',(0.0,0.0,-1.0));
#242=AXIS2_PLACEMENT_3D('',#239,#240,#241);
#243=CIRCLE('',#242,3.250000000000000);
#244=EDGE_CURVE('',#150,#133,#243,.T.);
#245=ORIENTED_EDGE('',*,*,#244,.F.);
#246=ORIENTED_EDGE('',*,*,#155,.F.);
#247=CARTESIAN_POINT('',(165.085056349549860,252.769011424863270,32.500000000000000));
#248=DIRECTION('',(0.0,1.0,0.0));
#249=DIRECTION('',(0.0,0.0,-1.0));
#250=AXIS2_PLACEMENT_3D('',#247,#248,#249);
#251=CIRCLE('',#250,3.250000000000000);
#252=EDGE_CURVE('',#131,#141,#251,.T.);
#253=ORIENTED_EDGE('',*,*,#252,.F.);
#254=EDGE_LOOP('',(#238,#245,#246,#253));
#255=FACE_OUTER_BOUND('',#254,.T.);
#256=ADVANCED_FACE('',(#255),#237,.F.);
#257=CARTESIAN_POINT('',(161.835056349549860,225.269011424863270,0.0));
#258=DIRECTION('',(-1.0,0.0,0.0));
#259=DIRECTION('',(0.0,0.0,1.0));
#260=AXIS2_PLACEMENT_3D('',#257,#258,#259);
#261=PLANE('',#260);
#262=CARTESIAN_POINT('',(161.835056349549860,225.269011424863270,5.0));
#263=VERTEX_POINT('',#262);
#264=CARTESIAN_POINT('',(161.835056349549860,245.269011424863240,5.0));
#265=VERTEX_POINT('',#264);
#266=CARTESIAN_POINT('',(161.835056349549860,225.269011424863270,5.0));
#267=DIRECTION('',(0.0,1.0,0.0));
#268=VECTOR('',#267,19.999999999999972);
#269=LINE('',#266,#268);
#270=EDGE_CURVE('',#263,#265,#269,.T.);
#271=ORIENTED_EDGE('',*,*,#270,.F.);
#272=CARTESIAN_POINT('',(161.835056349549860,225.269011424863270,0.0));
#273=VERTEX_POINT('',#272);
#274=CARTESIAN_POINT('',(161.835056349549860,225.269011424863270,0.0));
#275=DIRECTION('',(0.0,0.0,1.0));
#276=VECTOR('',#275,5.0);
#277=LINE('',#274,#276);
#278=EDGE_CURVE('',#273,#263,#277,.T.);
#279=ORIENTED_EDGE('',*,*,#278,.F.);
#280=CARTESIAN_POINT('',(161.835056349549860,245.269011424863240,0.0));
#281=VERTEX_POINT('',#280);
#282=CARTESIAN_POINT('',(161.835056349549860,245.269011424863240,0.0));
#283=DIRECTION('',(0.0,-1.0,0.0));
#284=VECTOR('',#283,19.999999999999972);
#285=LINE('',#282,#284);
#286=EDGE_CURVE('',#281,#273,#285,.T.);
#287=ORIENTED_EDGE('',*,*,#286,.F.);
#288=CARTESIAN_POINT('',(161.835056349549860,245.269011424863240,0.0));
#289=DIRECTION('',(0.0,0.0,1.0));
#290=VECTOR('',#289,5.0);
#291=LINE('',#288,#290);
#292=EDGE_CURVE('',#281,#265,#291,.T.);
#293=ORIENTED_EDGE('',*,*,#292,.T.);
#294=EDGE_LOOP('',(#271,#279,#287,#293));
#295=FACE_OUTER_BOUND('',#294,.T.);
#296=ADVANCED_FACE('',(#295),#261,.F.);
#297=CARTESIAN_POINT('',(165.085056349549860,245.269011424863240,0.0));
#298=DIRECTION('',(0.0,0.0,1.0));
#299=DIRECTION('',(1.0,0.0,0.0));
#300=AXIS2_PLACEMENT_3D('',#297,#298,#299);
#301=CYLINDRICAL_SURFACE('',#300,3.250000000000000);
#302=CARTESIAN_POINT('',(168.335056349549860,245.269011424863240,5.0));
#303=VERTEX_POINT('',#302);
#304=CARTESIAN_POINT('',(165.085056349549860,245.269011424863240,5.0));
#305=DIRECTION('',(0.0,0.0,-1.0));
#306=DIRECTION('',(1.0,0.0,0.0));
#307=AXIS2_PLACEMENT_3D('',#304,#305,#306);
#308=CIRCLE('',#307,3.250000000000000);
#309=EDGE_CURVE('',#265,#303,#308,.T.);
#310=ORIENTED_EDGE('',*,*,#309,.F.);
#311=ORIENTED_EDGE('',*,*,#292,.F.);
#312=CARTESIAN_POINT('',(168.335056349549860,245.269011424863240,0.0));
#313=VERTEX_POINT('',#312);
#314=CARTESIAN_POINT('',(165.085056349549860,245.269011424863240,0.0));
#315=DIRECTION('',(0.0,0.0,1.0));
#316=DIRECTION('',(1.0,0.0,0.0));
#317=AXIS2_PLACEMENT_3D('',#314,#315,#316);
#318=CIRCLE('',#317,3.250000000000000);
#319=EDGE_CURVE('',#313,#281,#318,.T.);
#320=ORIENTED_EDGE('',*,*,#319,.F.);
#321=CARTESIAN_POINT('',(168.335056349549860,245.269011424863240,0.0));
#322=DIRECTION('',(0.0,0.0,1.0));
#323=VECTOR('',#322,5.0);
#324=LINE('',#321,#323);
#325=EDGE_CURVE('',#313,#303,#324,.T.);
#326=ORIENTED_EDGE('',*,*,#325,.T.);
#327=EDGE_LOOP('',(#310,#311,#320,#326));
#328=FACE_OUTER_BOUND('',#327,.T.);
#329=ADVANCED_FACE('',(#328),#301,.F.);
#330=CARTESIAN_POINT('',(168.335056349549860,245.269011424863240,0.0));
#331=DIRECTION('',(1.0,0.0,0.0));
#332=DIRECTION('',(0.0,0.0,-1.0));
#333=AXIS2_PLACEMENT_3D('',#330,#331,#332);
#334=PLANE('',#333);
#335=CARTESIAN_POINT('',(168.335056349549860,225.269011424863270,5.0));
#336=VERTEX_POINT('',#335);
#337=CARTESIAN_POINT('',(168.335056349549860,245.269011424863240,5.0));
#338=DIRECTION('',(0.0,-1.0,0.0));
#339=VECTOR('',#338,19.999999999999972);
#340=LINE('',#337,#339);
#341=EDGE_CURVE('',#303,#336,#340,.T.);
#342=ORIENTED_EDGE('',*,*,#341,.F.);
#343=ORIENTED_EDGE('',*,*,#325,.F.);
#344=CARTESIAN_POINT('',(168.335056349549860,225.269011424863270,0.0));
#345=VERTEX_POINT('',#344);
#346=CARTESIAN_POINT('',(168.335056349549860,225.269011424863270,0.0));
#347=DIRECTION('',(0.0,1.0,0.0));
#348=VECTOR('',#347,19.999999999999972);
#349=LINE('',#346,#348);
#350=EDGE_CURVE('',#345,#313,#349,.T.);
#351=ORIENTED_EDGE('',*,*,#350,.F.);
#352=CARTESIAN_POINT('',(168.335056349549860,225.269011424863270,0.0));
#353=DIRECTION('',(0.0,0.0,1.0));
#354=VECTOR('',#353,5.0);
#355=LINE('',#352,#354);
#356=EDGE_CURVE('',#345,#336,#355,.T.);
#357=ORIENTED_EDGE('',*,*,#356,.T.);
#358=EDGE_LOOP('',(#342,#343,#351,#357));
#359=FACE_OUTER_BOUND('',#358,.T.);
#360=ADVANCED_FACE('',(#359),#334,.F.);
#361=CARTESIAN_POINT('',(165.085056349549860,225.269011424863270,0.0));
#362=DIRECTION('',(0.0,0.0,1.0));
#363=DIRECTION('',(1.0,0.0,0.0));
#364=AXIS2_PLACEMENT_3D('',#361,#362,#363);
#365=CYLINDRICAL_SURFACE('',#364,3.250000000000000);
#366=CARTESIAN_POINT('',(165.085056349549860,225.269011424863270,5.0));
#367=DIRECTION('',(0.0,0.0,-1.0));
#368=DIRECTION('',(1.0,0.0,0.0));
#369=AXIS2_PLACEMENT_3D('',#366,#367,#368);
#370=CIRCLE('',#369,3.250000000000000);
#371=EDGE_CURVE('',#336,#263,#370,.T.);
#372=ORIENTED_EDGE('',*,*,#371,.F.);
#373=ORIENTED_EDGE('',*,*,#356,.F.);
#374=CARTESIAN_POINT('',(165.085056349549860,225.269011424863270,0.0));
#375=DIRECTION('',(0.0,0.0,1.0));
#376=DIRECTION('',(1.0,0.0,0.0));
#377=AXIS2_PLACEMENT_3D('',#374,#375,#376);
#378=CIRCLE('',#377,3.250000000000000);
#379=EDGE_CURVE('',#273,#345,#378,.T.);
#380=ORIENTED_EDGE('',*,*,#379,.F.);
#381=ORIENTED_EDGE('',*,*,#278,.T.);
#382=EDGE_LOOP('',(#372,#373,#380,#381));
#383=FACE_OUTER_BOUND('',#382,.T.);
#384=ADVANCED_FACE('',(#383),#365,.F.);
#385=CARTESIAN_POINT('',(185.085056349549860,252.769011424863270,5.0));
#386=DIRECTION('',(0.0,-1.0,0.0));
#387=DIRECTION('',(0.0,0.0,-1.0));
#388=AXIS2_PLACEMENT_3D('',#385,#386,#387);
#389=PLANE('',#388);
#390=CARTESIAN_POINT('',(185.085056349549860,252.769011424863270,40.0));
#391=VERTEX_POINT('',#390);
#392=CARTESIAN_POINT('',(145.085056349549860,252.769011424863270,40.0));
#393=VERTEX_POINT('',#392);
#394=CARTESIAN_POINT('',(185.085056349549860,252.769011424863270,40.0));
#395=DIRECTION('',(-1.0,0.0,0.0));
#396=VECTOR('',#395,40.0);
#397=LINE('',#394,#396);
#398=EDGE_CURVE('',#391,#393,#397,.T.);
#399=ORIENTED_EDGE('',*,*,#398,.T.);
#400=CARTESIAN_POINT('',(145.085056349549860,252.769011424863270,5.0));
#401=VERTEX_POINT('',#400);
#402=CARTESIAN_POINT('',(145.085056349549860,252.769011424863270,5.0));
#403=DIRECTION('',(0.0,0.0,1.0));
#404=VECTOR('',#403,35.0);
#405=LINE('',#402,#404);
#406=EDGE_CURVE('',#401,#393,#405,.T.);
#407=ORIENTED_EDGE('',*,*,#406,.F.);
#408=CARTESIAN_POINT('',(185.085056349549860,252.769011424863270,5.0));
#409=VERTEX_POINT('',#408);
#410=CARTESIAN_POINT('',(185.085056349549860,252.769011424863270,5.0));
#411=DIRECTION('',(-1.0,0.0,0.0));
#412=VECTOR('',#411,40.0);
#413=LINE('',#410,#412);
#414=EDGE_CURVE('',#409,#401,#413,.T.);
#415=ORIENTED_EDGE('',*,*,#414,.F.);
#416=CARTESIAN_POINT('',(185.085056349549860,252.769011424863270,5.0));
#417=DIRECTION('',(0.0,0.0,1.0));
#418=VECTOR('',#417,35.0);
#419=LINE('',#416,#418);
#420=EDGE_CURVE('',#409,#391,#419,.T.);
#421=ORIENTED_EDGE('',*,*,#420,.T.);
#422=EDGE_LOOP('',(#399,#407,#415,#421));
#423=FACE_OUTER_BOUND('',#422,.T.);
#424=ORIENTED_EDGE('',*,*,#228,.T.);
#425=ORIENTED_EDGE('',*,*,#189,.T.);
#426=EDGE_LOOP('',(#424,#425));
#427=FACE_BOUND('',#426,.T.);
#428=ORIENTED_EDGE('',*,*,#252,.T.);
#429=ORIENTED_EDGE('',*,*,#147,.T.);
#430=EDGE_LOOP('',(#428,#429));
#431=FACE_BOUND('',#430,.T.);
#432=ADVANCED_FACE('',(#423,#427,#431),#389,.T.);
#433=CARTESIAN_POINT('',(145.085056349549860,257.769011424863270,40.0));
#434=DIRECTION('',(0.0,0.0,-1.0));
#435=DIRECTION('',(-1.0,0.0,0.0));
#436=AXIS2_PLACEMENT_3D('',#433,#434,#435);
#437=PLANE('',#436);
#438=CARTESIAN_POINT('',(145.085056349549860,257.769011424863270,40.0));
#439=VERTEX_POINT('',#438);
#440=CARTESIAN_POINT('',(185.085056349549860,257.769011424863270,40.0));
#441=VERTEX_POINT('',#440);
#442=CARTESIAN_POINT('',(145.085056349549860,257.769011424863270,40.0));
#443=DIRECTION('',(1.0,0.0,0.0));
#444=VECTOR('',#443,40.0);
#445=LINE('',#442,#444);
#446=EDGE_CURVE('',#439,#441,#445,.T.);
#447=ORIENTED_EDGE('',*,*,#446,.F.);
#448=CARTESIAN_POINT('',(145.085056349549860,252.769011424863270,40.0));
#449=DIRECTION('',(0.0,1.0,0.0));
#450=VECTOR('',#449,5.0);
#451=LINE('',#448,#450);
#452=EDGE_CURVE('',#393,#439,#451,.T.);
#453=ORIENTED_EDGE('',*,*,#452,.F.);
#454=ORIENTED_EDGE('',*,*,#398,.F.);
#455=CARTESIAN_POINT('',(185.085056349549860,257.769011424863270,40.0));
#456=DIRECTION('',(0.0,-1.0,0.0));
#457=VECTOR('',#456,5.0);
#458=LINE('',#455,#457);
#459=EDGE_CURVE('',#441,#391,#458,.T.);
#460=ORIENTED_EDGE('',*,*,#459,.F.);
#461=EDGE_LOOP('',(#447,#453,#454,#460));
#462=FACE_OUTER_BOUND('',#461,.T.);
#463=ADVANCED_FACE('',(#462),#437,.F.);
#464=CARTESIAN_POINT('',(145.085056349549860,257.769011424863270,5.0));
#465=DIRECTION('',(0.0,0.0,-1.0));
#466=DIRECTION('',(-1.0,0.0,0.0));
#467=AXIS2_PLACEMENT_3D('',#464,#465,#466);
#468=PLANE('',#467);
#469=ORIENTED_EDGE('',*,*,#414,.T.);
#470=CARTESIAN_POINT('',(145.085056349549860,217.769011424863270,5.0));
#471=VERTEX_POINT('',#470);
#472=CARTESIAN_POINT('',(145.085056349549860,217.769011424863270,5.0));
#473=DIRECTION('',(0.0,1.0,0.0));
#474=VECTOR('',#473,35.0);
#475=LINE('',#472,#474);
#476=EDGE_CURVE('',#471,#401,#475,.T.);
#477=ORIENTED_EDGE('',*,*,#476,.F.);
#478=CARTESIAN_POINT('',(185.085056349549860,217.769011424863270,5.0));
#479=VERTEX_POINT('',#478);
#480=CARTESIAN_POINT('',(185.085056349549860,217.769011424863270,5.0));
#481=DIRECTION('',(-1.0,0.0,0.0));
#482=VECTOR('',#481,40.0);
#483=LINE('',#480,#482);
#484=EDGE_CURVE('',#479,#471,#483,.T.);
#485=ORIENTED_EDGE('',*,*,#484,.F.);
#486=CARTESIAN_POINT('',(185.085056349549860,252.769011424863270,5.0));
#487=DIRECTION('',(0.0,-1.0,0.0));
#488=VECTOR('',#487,35.0);
#489=LINE('',#486,#488);
#490=EDGE_CURVE('',#409,#479,#489,.T.);
#491=ORIENTED_EDGE('',*,*,#490,.F.);
#492=EDGE_LOOP('',(#469,#477,#485,#491));
#493=FACE_OUTER_BOUND('',#492,.T.);
#494=ORIENTED_EDGE('',*,*,#270,.T.);
#495=ORIENTED_EDGE('',*,*,#309,.T.);
#496=ORIENTED_EDGE('',*,*,#341,.T.);
#497=ORIENTED_EDGE('',*,*,#371,.T.);
#498=EDGE_LOOP('',(#494,#495,#496,#497));
#499=FACE_BOUND('',#498,.T.);
#500=ADVANCED_FACE('',(#493,#499),#468,.F.);
#501=CARTESIAN_POINT('',(145.085056349549860,257.769011424863270,0.0));
#502=DIRECTION('',(0.0,1.0,0.0));
#503=DIRECTION('',(0.0,0.0,1.0));
#504=AXIS2_PLACEMENT_3D('',#501,#502,#503);
#505=PLANE('',#504);
#506=CARTESIAN_POINT('',(185.085056349549860,257.769011424863270,0.0));
#507=VERTEX_POINT('',#506);
#508=CARTESIAN_POINT('',(185.085056349549860,257.769011424863270,0.0));
#509=DIRECTION('',(0.0,0.0,1.0));
#510=VECTOR('',#509,40.0);
#511=LINE('',#508,#510);
#512=EDGE_CURVE('',#507,#441,#511,.T.);
#513=ORIENTED_EDGE('',*,*,#512,.F.);
#514=CARTESIAN_POINT('',(145.085056349549860,257.769011424863270,0.0));
#515=VERTEX_POINT('',#514);
#516=CARTESIAN_POINT('',(145.085056349549860,257.769011424863270,0.0));
#517=DIRECTION('',(1.0,0.0,0.0));
#518=VECTOR('',#517,40.0);
#519=LINE('',#516,#518);
#520=EDGE_CURVE('',#515,#507,#519,.T.);
#521=ORIENTED_EDGE('',*,*,#520,.F.);
#522=CARTESIAN_POINT('',(145.085056349549860,257.769011424863270,0.0));
#523=DIRECTION('',(0.0,0.0,1.0));
#524=VECTOR('',#523,40.0);
#525=LINE('',#522,#524);
#526=EDGE_CURVE('',#515,#439,#525,.T.);
#527=ORIENTED_EDGE('',*,*,#526,.T.);
#528=ORIENTED_EDGE('',*,*,#446,.T.);
#529=EDGE_LOOP('',(#513,#521,#527,#528));
#530=FACE_OUTER_BOUND('',#529,.T.);
#531=ORIENTED_EDGE('',*,*,#220,.T.);
#532=ORIENTED_EDGE('',*,*,#204,.T.);
#533=EDGE_LOOP('',(#531,#532));
#534=FACE_BOUND('',#533,.T.);
#535=ORIENTED_EDGE('',*,*,#244,.T.);
#536=ORIENTED_EDGE('',*,*,#162,.T.);
#537=EDGE_LOOP('',(#535,#536));
#538=FACE_BOUND('',#537,.T.);
#539=ADVANCED_FACE('',(#530,#534,#538),#505,.T.);
#540=CARTESIAN_POINT('',(185.085056349549860,257.769011424863270,0.0));
#541=DIRECTION('',(1.0,0.0,0.0));
#542=DIRECTION('',(0.0,0.0,-1.0));
#543=AXIS2_PLACEMENT_3D('',#540,#541,#542);
#544=PLANE('',#543);
#545=ORIENTED_EDGE('',*,*,#490,.T.);
#546=CARTESIAN_POINT('',(185.085056349549860,217.769011424863270,0.0));
#547=VERTEX_POINT('',#546);
#548=CARTESIAN_POINT('',(185.085056349549860,217.769011424863270,0.0));
#549=DIRECTION('',(0.0,0.0,1.0));
#550=VECTOR('',#549,5.0);
#551=LINE('',#548,#550);
#552=EDGE_CURVE('',#547,#479,#551,.T.);
#553=ORIENTED_EDGE('',*,*,#552,.F.);
#554=CARTESIAN_POINT('',(185.085056349549860,257.769011424863270,0.0));
#555=DIRECTION('',(0.0,-1.0,0.0));
#556=VECTOR('',#555,40.0);
#557=LINE('',#554,#556);
#558=EDGE_CURVE('',#507,#547,#557,.T.);
#559=ORIENTED_EDGE('',*,*,#558,.F.);
#560=ORIENTED_EDGE('',*,*,#512,.T.);
#561=ORIENTED_EDGE('',*,*,#459,.T.);
#562=ORIENTED_EDGE('',*,*,#420,.F.);
#563=EDGE_LOOP('',(#545,#553,#559,#560,#561,#562));
#564=FACE_OUTER_BOUND('',#563,.T.);
#565=ADVANCED_FACE('',(#564),#544,.T.);
#566=CARTESIAN_POINT('',(185.085056349549860,217.769011424863270,0.0));
#567=DIRECTION('',(0.0,-1.0,0.0));
#568=DIRECTION('',(0.0,0.0,-1.0));
#569=AXIS2_PLACEMENT_3D('',#566,#567,#568);
#570=PLANE('',#569);
#571=ORIENTED_EDGE('',*,*,#484,.T.);
#572=CARTESIAN_POINT('',(145.085056349549860,217.769011424863270,0.0));
#573=VERTEX_POINT('',#572);
#574=CARTESIAN_POINT('',(145.085056349549860,217.769011424863270,0.0));
#575=DIRECTION('',(0.0,0.0,1.0));
#576=VECTOR('',#575,5.0);
#577=LINE('',#574,#576);
#578=EDGE_CURVE('',#573,#471,#577,.T.);
#579=ORIENTED_EDGE('',*,*,#578,.F.);
#580=CARTESIAN_POINT('',(185.085056349549860,217.769011424863270,0.0));
#581=DIRECTION('',(-1.0,0.0,0.0));
#582=VECTOR('',#581,40.0);
#583=LINE('',#580,#582);
#584=EDGE_CURVE('',#547,#573,#583,.T.);
#585=ORIENTED_EDGE('',*,*,#584,.F.);
#586=ORIENTED_EDGE('',*,*,#552,.T.);
#587=EDGE_LOOP('',(#571,#579,#585,#586));
#588=FACE_OUTER_BOUND('',#587,.T.);
#589=ADVANCED_FACE('',(#588),#570,.T.);
#590=CARTESIAN_POINT('',(145.085056349549860,217.769011424863270,0.0));
#591=DIRECTION('',(-1.0,0.0,0.0));
#592=DIRECTION('',(0.0,0.0,1.0));
#593=AXIS2_PLACEMENT_3D('',#590,#591,#592);
#594=PLANE('',#593);
#595=ORIENTED_EDGE('',*,*,#476,.T.);
#596=ORIENTED_EDGE('',*,*,#406,.T.);
#597=ORIENTED_EDGE('',*,*,#452,.T.);
#598=ORIENTED_EDGE('',*,*,#526,.F.);
#599=CARTESIAN_POINT('',(145.085056349549860,217.769011424863270,0.0));
#600=DIRECTION('',(0.0,1.0,0.0));
#601=VECTOR('',#600,40.0);
#602=LINE('',#599,#601);
#603=EDGE_CURVE('',#573,#515,#602,.T.);
#604=ORIENTED_EDGE('',*,*,#603,.F.);
#605=ORIENTED_EDGE('',*,*,#578,.T.);
#606=EDGE_LOOP('',(#595,#596,#597,#598,#604,#605));
#607=FACE_OUTER_BOUND('',#606,.T.);
#608=ADVANCED_FACE('',(#607),#594,.T.);
#609=CARTESIAN_POINT('',(165.085056349549860,237.769011424863270,0.0));
#610=DIRECTION('',(0.0,0.0,1.0));
#611=DIRECTION('',(1.0,0.0,0.0));
#612=AXIS2_PLACEMENT_3D('',#609,#610,#611);
#613=PLANE('',#612);
#614=ORIENTED_EDGE('',*,*,#603,.T.);
#615=ORIENTED_EDGE('',*,*,#520,.T.);
#616=ORIENTED_EDGE('',*,*,#558,.T.);
#617=ORIENTED_EDGE('',*,*,#584,.T.);
#618=EDGE_LOOP('',(#614,#615,#616,#617));
#619=FACE_OUTER_BOUND('',#618,.T.);
#620=ORIENTED_EDGE('',*,*,#286,.T.);
#621=ORIENTED_EDGE('',*,*,#379,.T.);
#622=ORIENTED_EDGE('',*,*,#350,.T.);
#623=ORIENTED_EDGE('',*,*,#319,.T.);
#624=EDGE_LOOP('',(#620,#621,#622,#623));
#625=FACE_BOUND('',#624,.T.);
#626=ADVANCED_FACE('',(#619,#625),#613,.F.);
#627=CLOSED_SHELL('',(#166,#208,#232,#256,#296,#329,#360,#384,#432,#463,#500,#539,#565,#589,#608,#626));
#628=MANIFOLD_SOLID_BREP('56F',#627);
#629=ADVANCED_BREP_SHAPE_REPRESENTATION('ABSR1',(#628),#28);
#630=SHAPE_REPRESENTATION_RELATIONSHIP('SRRPL1',' ',#629,#122);
ENDSEC;
END-ISO-10303-21;
