ISO-10303-21;
HEADER;
/****************************************************************
 * Generated by software with PDElib inside                    *
 * PDElib Version v51a, created Wed 07/06/2011                  *
 * ITI Transcendata (http://www.transcendata.com/)              *
 ****************************************************************/
FILE_DESCRIPTION((''),'2;1');
FILE_NAME('U:\\Paletti Norm\\Paletti Artikel\\SZ\\SZ1701S_A.stp','2013-08-29T11:51:14',('janine behrens'),(''),'Autodesk Inventor 2012','Autodesk Inventor 2012','');
FILE_SCHEMA(('AUTOMOTIVE_DESIGN { 1 0 10303 214 1 1 1 1 }'));
ENDSEC;
DATA;
#5=APPLICATION_CONTEXT('automotive design');
#6=APPLICATION_PROTOCOL_DEFINITION('International Standard','automotive_design',2001,#5);
#7=PRODUCT_CONTEXT('',#5,'mechanical');
#8=PRODUCT('SZ1701S_A','SZ1701S_A',$,(#7));
#9=PRODUCT_RELATED_PRODUCT_CATEGORY('part',$,(#8));
#10=PRODUCT_DEFINITION_FORMATION('',$,#8);
#11=PRODUCT_DEFINITION_CONTEXT('part definition',#5,'design');
#12=PRODUCT_DEFINITION('',$,#10,#11);
#18=(NAMED_UNIT(*)PLANE_ANGLE_UNIT()SI_UNIT($,.RADIAN.));
#19=DIMENSIONAL_EXPONENTS(0.0,0.0,0.0,0.0,0.0,0.0,0.0);
#20=PLANE_ANGLE_MEASURE_WITH_UNIT(PLANE_ANGLE_MEASURE(0.0174532925),#18);
#24=(CONVERSION_BASED_UNIT('DEGREE',#20)NAMED_UNIT(#19)PLANE_ANGLE_UNIT());
#28=(NAMED_UNIT(*)SI_UNIT($,.STERADIAN.)SOLID_ANGLE_UNIT());
#32=(LENGTH_UNIT()NAMED_UNIT(*)SI_UNIT(.MILLI.,.METRE.));
#34=UNCERTAINTY_MEASURE_WITH_UNIT(LENGTH_MEASURE(0.01),#32,'DISTANCE_ACCURACY_VALUE','');
#36=(GEOMETRIC_REPRESENTATION_CONTEXT(3)GLOBAL_UNCERTAINTY_ASSIGNED_CONTEXT((#34))GLOBAL_UNIT_ASSIGNED_CONTEXT((#24,#28,#32))REPRESENTATION_CONTEXT('None','None'));
#37=AXIS2_PLACEMENT_3D('',#38,#39,#40);
#38=CARTESIAN_POINT('',(0.0,0.0,0.0));
#39=DIRECTION('',(0.0,0.0,1.0));
#40=DIRECTION('',(1.0,0.0,0.0));
#41=SHAPE_REPRESENTATION('',(#37),#36);
#42=PRODUCT_DEFINITION_SHAPE('','',#12);
#43=SHAPE_DEFINITION_REPRESENTATION(#42,#41);
#49=(NAMED_UNIT(*)PLANE_ANGLE_UNIT()SI_UNIT($,.RADIAN.));
#50=DIMENSIONAL_EXPONENTS(0.0,0.0,0.0,0.0,0.0,0.0,0.0);
#51=PLANE_ANGLE_MEASURE_WITH_UNIT(PLANE_ANGLE_MEASURE(0.0174532925),#49);
#55=(CONVERSION_BASED_UNIT('DEGREE',#51)NAMED_UNIT(#50)PLANE_ANGLE_UNIT());
#59=(NAMED_UNIT(*)SI_UNIT($,.STERADIAN.)SOLID_ANGLE_UNIT());
#63=(LENGTH_UNIT()NAMED_UNIT(*)SI_UNIT(.MILLI.,.METRE.));
#65=UNCERTAINTY_MEASURE_WITH_UNIT(LENGTH_MEASURE(0.000001),#63,'DISTANCE_ACCURACY_VALUE','');
#67=(GEOMETRIC_REPRESENTATION_CONTEXT(3)GLOBAL_UNCERTAINTY_ASSIGNED_CONTEXT((#65))GLOBAL_UNIT_ASSIGNED_CONTEXT((#55,#59,#63))REPRESENTATION_CONTEXT('','3D'));
#68=CARTESIAN_POINT('',(0.0,0.0,0.4));
#69=DIRECTION('',(0.0,0.0,1.0));
#70=DIRECTION('',(0.0,1.0,0.0));
#71=AXIS2_PLACEMENT_3D('',#68,#69,#70);
#72=CYLINDRICAL_SURFACE('',#71,39.500000000000014);
#73=CARTESIAN_POINT('',(0.0,39.5,0.8));
#74=VERTEX_POINT('',#73);
#75=CARTESIAN_POINT('',(0.0,0.0,0.8));
#76=DIRECTION('',(0.0,0.0,1.0));
#77=DIRECTION('',(0.0,1.0,0.0));
#78=AXIS2_PLACEMENT_3D('',#75,#76,#77);
#79=CIRCLE('',#78,39.5);
#80=EDGE_CURVE('',#74,#74,#79,.T.);
#81=ORIENTED_EDGE('',*,*,#80,.T.);
#82=EDGE_LOOP('',(#81));
#83=FACE_OUTER_BOUND('',#82,.T.);
#84=CARTESIAN_POINT('',(0.0,39.500000000000014,0.0));
#85=VERTEX_POINT('',#84);
#86=CARTESIAN_POINT('',(0.0,0.0,0.0));
#87=DIRECTION('',(0.0,0.0,1.0));
#88=DIRECTION('',(0.0,1.0,0.0));
#89=AXIS2_PLACEMENT_3D('',#86,#87,#88);
#90=CIRCLE('',#89,39.500000000000014);
#91=EDGE_CURVE('',#85,#85,#90,.T.);
#92=ORIENTED_EDGE('',*,*,#91,.F.);
#93=EDGE_LOOP('',(#92));
#94=FACE_BOUND('',#93,.T.);
#95=ADVANCED_FACE('',(#83,#94),#72,.F.);
#96=CARTESIAN_POINT('',(0.0,38.25,0.8));
#97=DIRECTION('',(0.0,0.0,1.0));
#98=DIRECTION('',(1.0,0.0,0.0));
#99=AXIS2_PLACEMENT_3D('',#96,#97,#98);
#100=PLANE('',#99);
#101=ORIENTED_EDGE('',*,*,#80,.F.);
#102=EDGE_LOOP('',(#101));
#103=FACE_OUTER_BOUND('',#102,.T.);
#104=CARTESIAN_POINT('',(0.0,37.0,0.8));
#105=VERTEX_POINT('',#104);
#106=CARTESIAN_POINT('',(0.0,0.0,0.8));
#107=DIRECTION('',(0.0,0.0,1.0));
#108=DIRECTION('',(0.0,1.0,0.0));
#109=AXIS2_PLACEMENT_3D('',#106,#107,#108);
#110=CIRCLE('',#109,37.0);
#111=EDGE_CURVE('',#105,#105,#110,.T.);
#112=ORIENTED_EDGE('',*,*,#111,.T.);
#113=EDGE_LOOP('',(#112));
#114=FACE_BOUND('',#113,.T.);
#115=ADVANCED_FACE('',(#103,#114),#100,.F.);
#116=CARTESIAN_POINT('',(0.0,0.0,0.4));
#117=DIRECTION('',(0.0,0.0,1.0));
#118=DIRECTION('',(0.0,1.0,0.0));
#119=AXIS2_PLACEMENT_3D('',#116,#117,#118);
#120=CYLINDRICAL_SURFACE('',#119,37.000000000000007);
#121=CARTESIAN_POINT('',(0.0,37.000000000000014,0.0));
#122=VERTEX_POINT('',#121);
#123=CARTESIAN_POINT('',(0.0,0.0,0.0));
#124=DIRECTION('',(0.0,0.0,-1.0));
#125=DIRECTION('',(0.0,1.0,0.0));
#126=AXIS2_PLACEMENT_3D('',#123,#124,#125);
#127=CIRCLE('',#126,37.000000000000007);
#128=EDGE_CURVE('',#122,#122,#127,.T.);
#129=ORIENTED_EDGE('',*,*,#128,.F.);
#130=EDGE_LOOP('',(#129));
#131=FACE_OUTER_BOUND('',#130,.T.);
#132=ORIENTED_EDGE('',*,*,#111,.F.);
#133=EDGE_LOOP('',(#132));
#134=FACE_BOUND('',#133,.T.);
#135=ADVANCED_FACE('',(#131,#134),#120,.T.);
#136=CARTESIAN_POINT('',(0.0,0.0,0.4));
#137=DIRECTION('',(0.0,0.0,1.0));
#138=DIRECTION('',(0.0,1.0,0.0));
#139=AXIS2_PLACEMENT_3D('',#136,#137,#138);
#140=CYLINDRICAL_SURFACE('',#139,34.5);
#141=CARTESIAN_POINT('',(0.0,34.5,0.8));
#142=VERTEX_POINT('',#141);
#143=CARTESIAN_POINT('',(0.0,0.0,0.8));
#144=DIRECTION('',(0.0,0.0,1.0));
#145=DIRECTION('',(0.0,1.0,0.0));
#146=AXIS2_PLACEMENT_3D('',#143,#144,#145);
#147=CIRCLE('',#146,34.5);
#148=EDGE_CURVE('',#142,#142,#147,.T.);
#149=ORIENTED_EDGE('',*,*,#148,.T.);
#150=EDGE_LOOP('',(#149));
#151=FACE_OUTER_BOUND('',#150,.T.);
#152=CARTESIAN_POINT('',(0.0,34.5,0.0));
#153=VERTEX_POINT('',#152);
#154=CARTESIAN_POINT('',(0.0,0.0,0.0));
#155=DIRECTION('',(0.0,0.0,1.0));
#156=DIRECTION('',(0.0,1.0,0.0));
#157=AXIS2_PLACEMENT_3D('',#154,#155,#156);
#158=CIRCLE('',#157,34.5);
#159=EDGE_CURVE('',#153,#153,#158,.T.);
#160=ORIENTED_EDGE('',*,*,#159,.F.);
#161=EDGE_LOOP('',(#160));
#162=FACE_BOUND('',#161,.T.);
#163=ADVANCED_FACE('',(#151,#162),#140,.F.);
#164=CARTESIAN_POINT('',(0.0,33.25,0.8));
#165=DIRECTION('',(0.0,0.0,1.0));
#166=DIRECTION('',(1.0,0.0,0.0));
#167=AXIS2_PLACEMENT_3D('',#164,#165,#166);
#168=PLANE('',#167);
#169=ORIENTED_EDGE('',*,*,#148,.F.);
#170=EDGE_LOOP('',(#169));
#171=FACE_OUTER_BOUND('',#170,.T.);
#172=CARTESIAN_POINT('',(0.0,32.0,0.8));
#173=VERTEX_POINT('',#172);
#174=CARTESIAN_POINT('',(0.0,0.0,0.8));
#175=DIRECTION('',(0.0,0.0,1.0));
#176=DIRECTION('',(0.0,1.0,0.0));
#177=AXIS2_PLACEMENT_3D('',#174,#175,#176);
#178=CIRCLE('',#177,32.0);
#179=EDGE_CURVE('',#173,#173,#178,.T.);
#180=ORIENTED_EDGE('',*,*,#179,.T.);
#181=EDGE_LOOP('',(#180));
#182=FACE_BOUND('',#181,.T.);
#183=ADVANCED_FACE('',(#171,#182),#168,.F.);
#184=CARTESIAN_POINT('',(0.0,0.0,0.4));
#185=DIRECTION('',(0.0,0.0,1.0));
#186=DIRECTION('',(0.0,1.0,0.0));
#187=AXIS2_PLACEMENT_3D('',#184,#185,#186);
#188=CYLINDRICAL_SURFACE('',#187,32.0);
#189=CARTESIAN_POINT('',(0.0,32.0,0.0));
#190=VERTEX_POINT('',#189);
#191=CARTESIAN_POINT('',(0.0,0.0,0.0));
#192=DIRECTION('',(0.0,0.0,-1.0));
#193=DIRECTION('',(0.0,1.0,0.0));
#194=AXIS2_PLACEMENT_3D('',#191,#192,#193);
#195=CIRCLE('',#194,32.0);
#196=EDGE_CURVE('',#190,#190,#195,.T.);
#197=ORIENTED_EDGE('',*,*,#196,.F.);
#198=EDGE_LOOP('',(#197));
#199=FACE_OUTER_BOUND('',#198,.T.);
#200=ORIENTED_EDGE('',*,*,#179,.F.);
#201=EDGE_LOOP('',(#200));
#202=FACE_BOUND('',#201,.T.);
#203=ADVANCED_FACE('',(#199,#202),#188,.T.);
#204=CARTESIAN_POINT('',(0.0,0.0,0.4));
#205=DIRECTION('',(0.0,0.0,1.0));
#206=DIRECTION('',(0.0,1.0,0.0));
#207=AXIS2_PLACEMENT_3D('',#204,#205,#206);
#208=CYLINDRICAL_SURFACE('',#207,19.5);
#209=CARTESIAN_POINT('',(0.0,19.5,0.8));
#210=VERTEX_POINT('',#209);
#211=CARTESIAN_POINT('',(0.0,0.0,0.8));
#212=DIRECTION('',(0.0,0.0,1.0));
#213=DIRECTION('',(0.0,1.0,0.0));
#214=AXIS2_PLACEMENT_3D('',#211,#212,#213);
#215=CIRCLE('',#214,19.5);
#216=EDGE_CURVE('',#210,#210,#215,.T.);
#217=ORIENTED_EDGE('',*,*,#216,.T.);
#218=EDGE_LOOP('',(#217));
#219=FACE_OUTER_BOUND('',#218,.T.);
#220=CARTESIAN_POINT('',(0.0,19.5,0.0));
#221=VERTEX_POINT('',#220);
#222=CARTESIAN_POINT('',(0.0,0.0,0.0));
#223=DIRECTION('',(0.0,0.0,1.0));
#224=DIRECTION('',(0.0,1.0,0.0));
#225=AXIS2_PLACEMENT_3D('',#222,#223,#224);
#226=CIRCLE('',#225,19.5);
#227=EDGE_CURVE('',#221,#221,#226,.T.);
#228=ORIENTED_EDGE('',*,*,#227,.F.);
#229=EDGE_LOOP('',(#228));
#230=FACE_BOUND('',#229,.T.);
#231=ADVANCED_FACE('',(#219,#230),#208,.F.);
#232=CARTESIAN_POINT('',(0.0,18.25,0.8));
#233=DIRECTION('',(0.0,0.0,1.0));
#234=DIRECTION('',(1.0,0.0,0.0));
#235=AXIS2_PLACEMENT_3D('',#232,#233,#234);
#236=PLANE('',#235);
#237=ORIENTED_EDGE('',*,*,#216,.F.);
#238=EDGE_LOOP('',(#237));
#239=FACE_OUTER_BOUND('',#238,.T.);
#240=CARTESIAN_POINT('',(0.0,17.0,0.8));
#241=VERTEX_POINT('',#240);
#242=CARTESIAN_POINT('',(0.0,0.0,0.8));
#243=DIRECTION('',(0.0,0.0,1.0));
#244=DIRECTION('',(0.0,1.0,0.0));
#245=AXIS2_PLACEMENT_3D('',#242,#243,#244);
#246=CIRCLE('',#245,17.0);
#247=EDGE_CURVE('',#241,#241,#246,.T.);
#248=ORIENTED_EDGE('',*,*,#247,.T.);
#249=EDGE_LOOP('',(#248));
#250=FACE_BOUND('',#249,.T.);
#251=ADVANCED_FACE('',(#239,#250),#236,.F.);
#252=CARTESIAN_POINT('',(0.0,0.0,0.4));
#253=DIRECTION('',(0.0,0.0,1.0));
#254=DIRECTION('',(0.0,1.0,0.0));
#255=AXIS2_PLACEMENT_3D('',#252,#253,#254);
#256=CYLINDRICAL_SURFACE('',#255,17.0);
#257=CARTESIAN_POINT('',(0.0,17.0,0.0));
#258=VERTEX_POINT('',#257);
#259=CARTESIAN_POINT('',(0.0,0.0,0.0));
#260=DIRECTION('',(0.0,0.0,-1.0));
#261=DIRECTION('',(0.0,1.0,0.0));
#262=AXIS2_PLACEMENT_3D('',#259,#260,#261);
#263=CIRCLE('',#262,17.0);
#264=EDGE_CURVE('',#258,#258,#263,.T.);
#265=ORIENTED_EDGE('',*,*,#264,.F.);
#266=EDGE_LOOP('',(#265));
#267=FACE_OUTER_BOUND('',#266,.T.);
#268=ORIENTED_EDGE('',*,*,#247,.F.);
#269=EDGE_LOOP('',(#268));
#270=FACE_BOUND('',#269,.T.);
#271=ADVANCED_FACE('',(#267,#270),#256,.T.);
#272=CARTESIAN_POINT('',(0.0,0.0,0.4));
#273=DIRECTION('',(0.0,0.0,1.0));
#274=DIRECTION('',(0.0,1.0,0.0));
#275=AXIS2_PLACEMENT_3D('',#272,#273,#274);
#276=CYLINDRICAL_SURFACE('',#275,9.5);
#277=CARTESIAN_POINT('',(0.0,9.5,0.8));
#278=VERTEX_POINT('',#277);
#279=CARTESIAN_POINT('',(0.0,0.0,0.8));
#280=DIRECTION('',(0.0,0.0,1.0));
#281=DIRECTION('',(0.0,1.0,0.0));
#282=AXIS2_PLACEMENT_3D('',#279,#280,#281);
#283=CIRCLE('',#282,9.5);
#284=EDGE_CURVE('',#278,#278,#283,.T.);
#285=ORIENTED_EDGE('',*,*,#284,.T.);
#286=EDGE_LOOP('',(#285));
#287=FACE_OUTER_BOUND('',#286,.T.);
#288=CARTESIAN_POINT('',(0.0,9.5,0.0));
#289=VERTEX_POINT('',#288);
#290=CARTESIAN_POINT('',(0.0,0.0,0.0));
#291=DIRECTION('',(0.0,0.0,1.0));
#292=DIRECTION('',(0.0,1.0,0.0));
#293=AXIS2_PLACEMENT_3D('',#290,#291,#292);
#294=CIRCLE('',#293,9.5);
#295=EDGE_CURVE('',#289,#289,#294,.T.);
#296=ORIENTED_EDGE('',*,*,#295,.F.);
#297=EDGE_LOOP('',(#296));
#298=FACE_BOUND('',#297,.T.);
#299=ADVANCED_FACE('',(#287,#298),#276,.F.);
#300=CARTESIAN_POINT('',(0.0,8.25,0.8));
#301=DIRECTION('',(0.0,0.0,1.0));
#302=DIRECTION('',(1.0,0.0,0.0));
#303=AXIS2_PLACEMENT_3D('',#300,#301,#302);
#304=PLANE('',#303);
#305=ORIENTED_EDGE('',*,*,#284,.F.);
#306=EDGE_LOOP('',(#305));
#307=FACE_OUTER_BOUND('',#306,.T.);
#308=CARTESIAN_POINT('',(0.0,7.000000000000001,0.8));
#309=VERTEX_POINT('',#308);
#310=CARTESIAN_POINT('',(0.0,0.0,0.8));
#311=DIRECTION('',(0.0,0.0,1.0));
#312=DIRECTION('',(0.0,1.0,0.0));
#313=AXIS2_PLACEMENT_3D('',#310,#311,#312);
#314=CIRCLE('',#313,7.000000000000001);
#315=EDGE_CURVE('',#309,#309,#314,.T.);
#316=ORIENTED_EDGE('',*,*,#315,.T.);
#317=EDGE_LOOP('',(#316));
#318=FACE_BOUND('',#317,.T.);
#319=ADVANCED_FACE('',(#307,#318),#304,.F.);
#320=CARTESIAN_POINT('',(0.0,0.0,0.4));
#321=DIRECTION('',(0.0,0.0,1.0));
#322=DIRECTION('',(0.0,1.0,0.0));
#323=AXIS2_PLACEMENT_3D('',#320,#321,#322);
#324=CYLINDRICAL_SURFACE('',#323,7.000000000000002);
#325=CARTESIAN_POINT('',(0.0,7.000000000000002,0.0));
#326=VERTEX_POINT('',#325);
#327=CARTESIAN_POINT('',(0.0,0.0,0.0));
#328=DIRECTION('',(0.0,0.0,-1.0));
#329=DIRECTION('',(0.0,1.0,0.0));
#330=AXIS2_PLACEMENT_3D('',#327,#328,#329);
#331=CIRCLE('',#330,7.000000000000002);
#332=EDGE_CURVE('',#326,#326,#331,.T.);
#333=ORIENTED_EDGE('',*,*,#332,.F.);
#334=EDGE_LOOP('',(#333));
#335=FACE_OUTER_BOUND('',#334,.T.);
#336=ORIENTED_EDGE('',*,*,#315,.F.);
#337=EDGE_LOOP('',(#336));
#338=FACE_BOUND('',#337,.T.);
#339=ADVANCED_FACE('',(#335,#338),#324,.T.);
#340=CARTESIAN_POINT('',(0.0,0.0,0.4));
#341=DIRECTION('',(0.0,0.0,1.0));
#342=DIRECTION('',(0.0,1.0,0.0));
#343=AXIS2_PLACEMENT_3D('',#340,#341,#342);
#344=CYLINDRICAL_SURFACE('',#343,24.5);
#345=CARTESIAN_POINT('',(0.0,24.5,0.8));
#346=VERTEX_POINT('',#345);
#347=CARTESIAN_POINT('',(0.0,0.0,0.8));
#348=DIRECTION('',(0.0,0.0,1.0));
#349=DIRECTION('',(0.0,1.0,0.0));
#350=AXIS2_PLACEMENT_3D('',#347,#348,#349);
#351=CIRCLE('',#350,24.5);
#352=EDGE_CURVE('',#346,#346,#351,.T.);
#353=ORIENTED_EDGE('',*,*,#352,.T.);
#354=EDGE_LOOP('',(#353));
#355=FACE_OUTER_BOUND('',#354,.T.);
#356=CARTESIAN_POINT('',(0.0,24.5,0.0));
#357=VERTEX_POINT('',#356);
#358=CARTESIAN_POINT('',(0.0,0.0,0.0));
#359=DIRECTION('',(0.0,0.0,1.0));
#360=DIRECTION('',(0.0,1.0,0.0));
#361=AXIS2_PLACEMENT_3D('',#358,#359,#360);
#362=CIRCLE('',#361,24.5);
#363=EDGE_CURVE('',#357,#357,#362,.T.);
#364=ORIENTED_EDGE('',*,*,#363,.F.);
#365=EDGE_LOOP('',(#364));
#366=FACE_BOUND('',#365,.T.);
#367=ADVANCED_FACE('',(#355,#366),#344,.F.);
#368=CARTESIAN_POINT('',(0.0,23.25,0.8));
#369=DIRECTION('',(0.0,0.0,1.0));
#370=DIRECTION('',(1.0,0.0,0.0));
#371=AXIS2_PLACEMENT_3D('',#368,#369,#370);
#372=PLANE('',#371);
#373=ORIENTED_EDGE('',*,*,#352,.F.);
#374=EDGE_LOOP('',(#373));
#375=FACE_OUTER_BOUND('',#374,.T.);
#376=CARTESIAN_POINT('',(0.0,22.0,0.8));
#377=VERTEX_POINT('',#376);
#378=CARTESIAN_POINT('',(0.0,0.0,0.8));
#379=DIRECTION('',(0.0,0.0,1.0));
#380=DIRECTION('',(0.0,1.0,0.0));
#381=AXIS2_PLACEMENT_3D('',#378,#379,#380);
#382=CIRCLE('',#381,22.0);
#383=EDGE_CURVE('',#377,#377,#382,.T.);
#384=ORIENTED_EDGE('',*,*,#383,.T.);
#385=EDGE_LOOP('',(#384));
#386=FACE_BOUND('',#385,.T.);
#387=ADVANCED_FACE('',(#375,#386),#372,.F.);
#388=CARTESIAN_POINT('',(0.0,0.0,0.4));
#389=DIRECTION('',(0.0,0.0,1.0));
#390=DIRECTION('',(0.0,1.0,0.0));
#391=AXIS2_PLACEMENT_3D('',#388,#389,#390);
#392=CYLINDRICAL_SURFACE('',#391,22.0);
#393=CARTESIAN_POINT('',(0.0,22.0,0.0));
#394=VERTEX_POINT('',#393);
#395=CARTESIAN_POINT('',(0.0,0.0,0.0));
#396=DIRECTION('',(0.0,0.0,-1.0));
#397=DIRECTION('',(0.0,1.0,0.0));
#398=AXIS2_PLACEMENT_3D('',#395,#396,#397);
#399=CIRCLE('',#398,22.0);
#400=EDGE_CURVE('',#394,#394,#399,.T.);
#401=ORIENTED_EDGE('',*,*,#400,.F.);
#402=EDGE_LOOP('',(#401));
#403=FACE_OUTER_BOUND('',#402,.T.);
#404=ORIENTED_EDGE('',*,*,#383,.F.);
#405=EDGE_LOOP('',(#404));
#406=FACE_BOUND('',#405,.T.);
#407=ADVANCED_FACE('',(#403,#406),#392,.T.);
#408=CARTESIAN_POINT('',(0.0,0.0,0.4));
#409=DIRECTION('',(0.0,0.0,1.0));
#410=DIRECTION('',(0.0,1.0,0.0));
#411=AXIS2_PLACEMENT_3D('',#408,#409,#410);
#412=CYLINDRICAL_SURFACE('',#411,14.500000000000002);
#413=CARTESIAN_POINT('',(0.0,14.500000000000002,0.8));
#414=VERTEX_POINT('',#413);
#415=CARTESIAN_POINT('',(0.0,0.0,0.8));
#416=DIRECTION('',(0.0,0.0,1.0));
#417=DIRECTION('',(0.0,1.0,0.0));
#418=AXIS2_PLACEMENT_3D('',#415,#416,#417);
#419=CIRCLE('',#418,14.500000000000002);
#420=EDGE_CURVE('',#414,#414,#419,.T.);
#421=ORIENTED_EDGE('',*,*,#420,.T.);
#422=EDGE_LOOP('',(#421));
#423=FACE_OUTER_BOUND('',#422,.T.);
#424=CARTESIAN_POINT('',(0.0,14.5,0.0));
#425=VERTEX_POINT('',#424);
#426=CARTESIAN_POINT('',(0.0,0.0,0.0));
#427=DIRECTION('',(0.0,0.0,1.0));
#428=DIRECTION('',(0.0,1.0,0.0));
#429=AXIS2_PLACEMENT_3D('',#426,#427,#428);
#430=CIRCLE('',#429,14.500000000000002);
#431=EDGE_CURVE('',#425,#425,#430,.T.);
#432=ORIENTED_EDGE('',*,*,#431,.F.);
#433=EDGE_LOOP('',(#432));
#434=FACE_BOUND('',#433,.T.);
#435=ADVANCED_FACE('',(#423,#434),#412,.F.);
#436=CARTESIAN_POINT('',(0.0,13.250000000000002,0.8));
#437=DIRECTION('',(0.0,0.0,1.0));
#438=DIRECTION('',(1.0,0.0,0.0));
#439=AXIS2_PLACEMENT_3D('',#436,#437,#438);
#440=PLANE('',#439);
#441=ORIENTED_EDGE('',*,*,#420,.F.);
#442=EDGE_LOOP('',(#441));
#443=FACE_OUTER_BOUND('',#442,.T.);
#444=CARTESIAN_POINT('',(0.0,12.000000000000002,0.8));
#445=VERTEX_POINT('',#444);
#446=CARTESIAN_POINT('',(0.0,0.0,0.8));
#447=DIRECTION('',(0.0,0.0,1.0));
#448=DIRECTION('',(0.0,1.0,0.0));
#449=AXIS2_PLACEMENT_3D('',#446,#447,#448);
#450=CIRCLE('',#449,12.000000000000002);
#451=EDGE_CURVE('',#445,#445,#450,.T.);
#452=ORIENTED_EDGE('',*,*,#451,.T.);
#453=EDGE_LOOP('',(#452));
#454=FACE_BOUND('',#453,.T.);
#455=ADVANCED_FACE('',(#443,#454),#440,.F.);
#456=CARTESIAN_POINT('',(0.0,0.0,0.4));
#457=DIRECTION('',(0.0,0.0,1.0));
#458=DIRECTION('',(0.0,1.0,0.0));
#459=AXIS2_PLACEMENT_3D('',#456,#457,#458);
#460=CYLINDRICAL_SURFACE('',#459,12.0);
#461=CARTESIAN_POINT('',(0.0,11.999999999999996,0.0));
#462=VERTEX_POINT('',#461);
#463=CARTESIAN_POINT('',(0.0,0.0,0.0));
#464=DIRECTION('',(0.0,0.0,-1.0));
#465=DIRECTION('',(0.0,1.0,0.0));
#466=AXIS2_PLACEMENT_3D('',#463,#464,#465);
#467=CIRCLE('',#466,12.0);
#468=EDGE_CURVE('',#462,#462,#467,.T.);
#469=ORIENTED_EDGE('',*,*,#468,.F.);
#470=EDGE_LOOP('',(#469));
#471=FACE_OUTER_BOUND('',#470,.T.);
#472=ORIENTED_EDGE('',*,*,#451,.F.);
#473=EDGE_LOOP('',(#472));
#474=FACE_BOUND('',#473,.T.);
#475=ADVANCED_FACE('',(#471,#474),#460,.T.);
#476=CARTESIAN_POINT('',(0.0,0.0,0.4));
#477=DIRECTION('',(0.0,0.0,1.0));
#478=DIRECTION('',(0.0,1.0,0.0));
#479=AXIS2_PLACEMENT_3D('',#476,#477,#478);
#480=CYLINDRICAL_SURFACE('',#479,29.500000000000011);
#481=CARTESIAN_POINT('',(0.0,29.5,0.8));
#482=VERTEX_POINT('',#481);
#483=CARTESIAN_POINT('',(0.0,0.0,0.8));
#484=DIRECTION('',(0.0,0.0,1.0));
#485=DIRECTION('',(0.0,1.0,0.0));
#486=AXIS2_PLACEMENT_3D('',#483,#484,#485);
#487=CIRCLE('',#486,29.5);
#488=EDGE_CURVE('',#482,#482,#487,.T.);
#489=ORIENTED_EDGE('',*,*,#488,.T.);
#490=EDGE_LOOP('',(#489));
#491=FACE_OUTER_BOUND('',#490,.T.);
#492=CARTESIAN_POINT('',(0.0,29.500000000000014,0.0));
#493=VERTEX_POINT('',#492);
#494=CARTESIAN_POINT('',(0.0,0.0,0.0));
#495=DIRECTION('',(0.0,0.0,1.0));
#496=DIRECTION('',(0.0,1.0,0.0));
#497=AXIS2_PLACEMENT_3D('',#494,#495,#496);
#498=CIRCLE('',#497,29.500000000000011);
#499=EDGE_CURVE('',#493,#493,#498,.T.);
#500=ORIENTED_EDGE('',*,*,#499,.F.);
#501=EDGE_LOOP('',(#500));
#502=FACE_BOUND('',#501,.T.);
#503=ADVANCED_FACE('',(#491,#502),#480,.F.);
#504=CARTESIAN_POINT('',(0.0,28.25,0.8));
#505=DIRECTION('',(0.0,0.0,1.0));
#506=DIRECTION('',(1.0,0.0,0.0));
#507=AXIS2_PLACEMENT_3D('',#504,#505,#506);
#508=PLANE('',#507);
#509=ORIENTED_EDGE('',*,*,#488,.F.);
#510=EDGE_LOOP('',(#509));
#511=FACE_OUTER_BOUND('',#510,.T.);
#512=CARTESIAN_POINT('',(0.0,27.0,0.8));
#513=VERTEX_POINT('',#512);
#514=CARTESIAN_POINT('',(0.0,0.0,0.8));
#515=DIRECTION('',(0.0,0.0,1.0));
#516=DIRECTION('',(0.0,1.0,0.0));
#517=AXIS2_PLACEMENT_3D('',#514,#515,#516);
#518=CIRCLE('',#517,27.0);
#519=EDGE_CURVE('',#513,#513,#518,.T.);
#520=ORIENTED_EDGE('',*,*,#519,.T.);
#521=EDGE_LOOP('',(#520));
#522=FACE_BOUND('',#521,.T.);
#523=ADVANCED_FACE('',(#511,#522),#508,.F.);
#524=CARTESIAN_POINT('',(0.0,0.0,0.4));
#525=DIRECTION('',(0.0,0.0,1.0));
#526=DIRECTION('',(0.0,1.0,0.0));
#527=AXIS2_PLACEMENT_3D('',#524,#525,#526);
#528=CYLINDRICAL_SURFACE('',#527,27.000000000000007);
#529=CARTESIAN_POINT('',(0.0,27.000000000000011,0.0));
#530=VERTEX_POINT('',#529);
#531=CARTESIAN_POINT('',(0.0,0.0,0.0));
#532=DIRECTION('',(0.0,0.0,-1.0));
#533=DIRECTION('',(0.0,1.0,0.0));
#534=AXIS2_PLACEMENT_3D('',#531,#532,#533);
#535=CIRCLE('',#534,27.000000000000007);
#536=EDGE_CURVE('',#530,#530,#535,.T.);
#537=ORIENTED_EDGE('',*,*,#536,.F.);
#538=EDGE_LOOP('',(#537));
#539=FACE_OUTER_BOUND('',#538,.T.);
#540=ORIENTED_EDGE('',*,*,#519,.F.);
#541=EDGE_LOOP('',(#540));
#542=FACE_BOUND('',#541,.T.);
#543=ADVANCED_FACE('',(#539,#542),#528,.T.);
#544=CARTESIAN_POINT('',(20.75,0.0,0.0));
#545=DIRECTION('',(0.0,0.0,-1.0));
#546=DIRECTION('',(-1.0,0.0,0.0));
#547=AXIS2_PLACEMENT_3D('',#544,#545,#546);
#548=PLANE('',#547);
#549=ORIENTED_EDGE('',*,*,#536,.T.);
#550=EDGE_LOOP('',(#549));
#551=FACE_OUTER_BOUND('',#550,.T.);
#552=ORIENTED_EDGE('',*,*,#363,.T.);
#553=EDGE_LOOP('',(#552));
#554=FACE_BOUND('',#553,.T.);
#555=ADVANCED_FACE('',(#551,#554),#548,.T.);
#556=CARTESIAN_POINT('',(20.75,0.0,0.0));
#557=DIRECTION('',(0.0,0.0,-1.0));
#558=DIRECTION('',(-1.0,0.0,0.0));
#559=AXIS2_PLACEMENT_3D('',#556,#557,#558);
#560=PLANE('',#559);
#561=ORIENTED_EDGE('',*,*,#468,.T.);
#562=EDGE_LOOP('',(#561));
#563=FACE_OUTER_BOUND('',#562,.T.);
#564=ORIENTED_EDGE('',*,*,#295,.T.);
#565=EDGE_LOOP('',(#564));
#566=FACE_BOUND('',#565,.T.);
#567=ADVANCED_FACE('',(#563,#566),#560,.T.);
#568=CARTESIAN_POINT('',(20.75,0.0,0.0));
#569=DIRECTION('',(0.0,0.0,-1.0));
#570=DIRECTION('',(-1.0,0.0,0.0));
#571=AXIS2_PLACEMENT_3D('',#568,#569,#570);
#572=PLANE('',#571);
#573=ORIENTED_EDGE('',*,*,#400,.T.);
#574=EDGE_LOOP('',(#573));
#575=FACE_OUTER_BOUND('',#574,.T.);
#576=ORIENTED_EDGE('',*,*,#227,.T.);
#577=EDGE_LOOP('',(#576));
#578=FACE_BOUND('',#577,.T.);
#579=ADVANCED_FACE('',(#575,#578),#572,.T.);
#580=CARTESIAN_POINT('',(20.75,0.0,0.0));
#581=DIRECTION('',(0.0,0.0,-1.0));
#582=DIRECTION('',(-1.0,0.0,0.0));
#583=AXIS2_PLACEMENT_3D('',#580,#581,#582);
#584=PLANE('',#583);
#585=ORIENTED_EDGE('',*,*,#332,.T.);
#586=EDGE_LOOP('',(#585));
#587=FACE_OUTER_BOUND('',#586,.T.);
#588=ADVANCED_FACE('',(#587),#584,.T.);
#589=CARTESIAN_POINT('',(20.75,0.0,0.0));
#590=DIRECTION('',(0.0,0.0,-1.0));
#591=DIRECTION('',(-1.0,0.0,0.0));
#592=AXIS2_PLACEMENT_3D('',#589,#590,#591);
#593=PLANE('',#592);
#594=ORIENTED_EDGE('',*,*,#264,.T.);
#595=EDGE_LOOP('',(#594));
#596=FACE_OUTER_BOUND('',#595,.T.);
#597=ORIENTED_EDGE('',*,*,#431,.T.);
#598=EDGE_LOOP('',(#597));
#599=FACE_BOUND('',#598,.T.);
#600=ADVANCED_FACE('',(#596,#599),#593,.T.);
#601=CARTESIAN_POINT('',(20.75,0.0,0.0));
#602=DIRECTION('',(0.0,0.0,-1.0));
#603=DIRECTION('',(-1.0,0.0,0.0));
#604=AXIS2_PLACEMENT_3D('',#601,#602,#603);
#605=PLANE('',#604);
#606=ORIENTED_EDGE('',*,*,#196,.T.);
#607=EDGE_LOOP('',(#606));
#608=FACE_OUTER_BOUND('',#607,.T.);
#609=ORIENTED_EDGE('',*,*,#499,.T.);
#610=EDGE_LOOP('',(#609));
#611=FACE_BOUND('',#610,.T.);
#612=ADVANCED_FACE('',(#608,#611),#605,.T.);
#613=CARTESIAN_POINT('',(20.75,0.0,0.0));
#614=DIRECTION('',(0.0,0.0,-1.0));
#615=DIRECTION('',(-1.0,0.0,0.0));
#616=AXIS2_PLACEMENT_3D('',#613,#614,#615);
#617=PLANE('',#616);
#618=ORIENTED_EDGE('',*,*,#128,.T.);
#619=EDGE_LOOP('',(#618));
#620=FACE_OUTER_BOUND('',#619,.T.);
#621=ORIENTED_EDGE('',*,*,#159,.T.);
#622=EDGE_LOOP('',(#621));
#623=FACE_BOUND('',#622,.T.);
#624=ADVANCED_FACE('',(#620,#623),#617,.T.);
#625=CARTESIAN_POINT('',(0.0,0.0,6.224999999999998));
#626=DIRECTION('',(0.0,0.0,1.0));
#627=DIRECTION('',(1.0,0.0,0.0));
#628=AXIS2_PLACEMENT_3D('',#625,#626,#627);
#629=CYLINDRICAL_SURFACE('',#628,41.5);
#630=CARTESIAN_POINT('',(41.499999999999993,0.0,12.449999999999996));
#631=VERTEX_POINT('',#630);
#632=CARTESIAN_POINT('',(0.0,0.0,12.449999999999996));
#633=DIRECTION('',(0.0,0.0,1.0));
#634=DIRECTION('',(1.0,0.0,0.0));
#635=AXIS2_PLACEMENT_3D('',#632,#633,#634);
#636=CIRCLE('',#635,41.499999999999993);
#637=EDGE_CURVE('',#631,#631,#636,.T.);
#638=ORIENTED_EDGE('',*,*,#637,.F.);
#639=EDGE_LOOP('',(#638));
#640=FACE_OUTER_BOUND('',#639,.T.);
#641=CARTESIAN_POINT('',(41.5,0.0,0.0));
#642=VERTEX_POINT('',#641);
#643=CARTESIAN_POINT('',(0.0,0.0,0.0));
#644=DIRECTION('',(0.0,0.0,1.0));
#645=DIRECTION('',(1.0,0.0,0.0));
#646=AXIS2_PLACEMENT_3D('',#643,#644,#645);
#647=CIRCLE('',#646,41.5);
#648=EDGE_CURVE('',#642,#642,#647,.T.);
#649=ORIENTED_EDGE('',*,*,#648,.T.);
#650=EDGE_LOOP('',(#649));
#651=FACE_BOUND('',#650,.T.);
#652=ADVANCED_FACE('',(#640,#651),#629,.T.);
#653=CARTESIAN_POINT('',(0.0,0.0,12.449999999999996));
#654=DIRECTION('',(0.0,0.0,1.0));
#655=DIRECTION('',(1.0,0.0,0.0));
#656=AXIS2_PLACEMENT_3D('',#653,#654,#655);
#657=TOROIDAL_SURFACE('',#656,40.0,1.5);
#658=CARTESIAN_POINT('',(40.000000000000007,0.0,13.949999999999996));
#659=VERTEX_POINT('',#658);
#660=CARTESIAN_POINT('',(0.0,0.0,13.949999999999996));
#661=DIRECTION('',(0.0,0.0,1.0));
#662=DIRECTION('',(1.0,0.0,0.0));
#663=AXIS2_PLACEMENT_3D('',#660,#661,#662);
#664=CIRCLE('',#663,40.000000000000007);
#665=EDGE_CURVE('',#659,#659,#664,.T.);
#666=ORIENTED_EDGE('',*,*,#665,.F.);
#667=EDGE_LOOP('',(#666));
#668=FACE_OUTER_BOUND('',#667,.T.);
#669=ORIENTED_EDGE('',*,*,#637,.T.);
#670=EDGE_LOOP('',(#669));
#671=FACE_BOUND('',#670,.T.);
#672=ADVANCED_FACE('',(#668,#671),#657,.T.);
#673=CARTESIAN_POINT('',(0.0,0.0,13.449999999999999));
#674=DIRECTION('',(0.0,0.0,1.0));
#675=DIRECTION('',(1.0,0.0,0.0));
#676=AXIS2_PLACEMENT_3D('',#673,#674,#675);
#677=TOROIDAL_SURFACE('',#676,39.999999999999993,0.499999999999996);
#678=CARTESIAN_POINT('',(39.5,0.0,13.449999999999996));
#679=VERTEX_POINT('',#678);
#680=CARTESIAN_POINT('',(0.0,0.0,13.449999999999996));
#681=DIRECTION('',(0.0,0.0,1.0));
#682=DIRECTION('',(1.0,0.0,0.0));
#683=AXIS2_PLACEMENT_3D('',#680,#681,#682);
#684=CIRCLE('',#683,39.5);
#685=EDGE_CURVE('',#679,#679,#684,.T.);
#686=ORIENTED_EDGE('',*,*,#685,.F.);
#687=EDGE_LOOP('',(#686));
#688=FACE_OUTER_BOUND('',#687,.T.);
#689=ORIENTED_EDGE('',*,*,#665,.T.);
#690=EDGE_LOOP('',(#689));
#691=FACE_BOUND('',#690,.T.);
#692=ADVANCED_FACE('',(#688,#691),#677,.T.);
#693=CARTESIAN_POINT('',(0.0,0.0,7.724999999999998));
#694=DIRECTION('',(0.0,0.0,1.0));
#695=DIRECTION('',(1.0,0.0,0.0));
#696=AXIS2_PLACEMENT_3D('',#693,#694,#695);
#697=CYLINDRICAL_SURFACE('',#696,39.5);
#698=CARTESIAN_POINT('',(39.5,0.0,2.0));
#699=VERTEX_POINT('',#698);
#700=CARTESIAN_POINT('',(0.0,0.0,2.0));
#701=DIRECTION('',(0.0,0.0,1.0));
#702=DIRECTION('',(1.0,0.0,0.0));
#703=AXIS2_PLACEMENT_3D('',#700,#701,#702);
#704=CIRCLE('',#703,39.5);
#705=EDGE_CURVE('',#699,#699,#704,.T.);
#706=ORIENTED_EDGE('',*,*,#705,.F.);
#707=EDGE_LOOP('',(#706));
#708=FACE_OUTER_BOUND('',#707,.T.);
#709=ORIENTED_EDGE('',*,*,#685,.T.);
#710=EDGE_LOOP('',(#709));
#711=FACE_BOUND('',#710,.T.);
#712=ADVANCED_FACE('',(#708,#711),#697,.F.);
#713=CARTESIAN_POINT('',(19.75,0.0,2.000000000000001));
#714=DIRECTION('',(0.0,0.0,1.0));
#715=DIRECTION('',(1.0,0.0,0.0));
#716=AXIS2_PLACEMENT_3D('',#713,#714,#715);
#717=PLANE('',#716);
#718=ORIENTED_EDGE('',*,*,#705,.T.);
#719=EDGE_LOOP('',(#718));
#720=FACE_OUTER_BOUND('',#719,.T.);
#721=ADVANCED_FACE('',(#720),#717,.T.);
#722=CARTESIAN_POINT('',(20.75,0.0,0.0));
#723=DIRECTION('',(0.0,0.0,-1.0));
#724=DIRECTION('',(-1.0,0.0,0.0));
#725=AXIS2_PLACEMENT_3D('',#722,#723,#724);
#726=PLANE('',#725);
#727=ORIENTED_EDGE('',*,*,#648,.F.);
#728=EDGE_LOOP('',(#727));
#729=FACE_OUTER_BOUND('',#728,.T.);
#730=ORIENTED_EDGE('',*,*,#91,.T.);
#731=EDGE_LOOP('',(#730));
#732=FACE_BOUND('',#731,.T.);
#733=ADVANCED_FACE('',(#729,#732),#726,.T.);
#734=CLOSED_SHELL('',(#95,#115,#135,#163,#183,#203,#231,#251,#271,#299,#319,#339,#367,#387,#407,#435,#455,#475,#503,#523,#543,#555,#567,#579,#588,#600,#612,#624,#652,#672,#692,#712,#721,#733));
#735=MANIFOLD_SOLID_BREP('Volumenk\S\vrper1',#734);
#736=DRAUGHTING_PRE_DEFINED_COLOUR('black');
#737=FILL_AREA_STYLE_COLOUR('Schwarz',#736);
#738=FILL_AREA_STYLE('Schwarz',(#737));
#739=SURFACE_STYLE_FILL_AREA(#738);
#740=SURFACE_SIDE_STYLE('Schwarz',(#739));
#741=SURFACE_STYLE_USAGE(.BOTH.,#740);
#742=PRESENTATION_STYLE_ASSIGNMENT((#741));
#743=STYLED_ITEM('',(#742),#735);
#744=MECHANICAL_DESIGN_GEOMETRIC_PRESENTATION_REPRESENTATION('',(#743),#36);
#745=ADVANCED_BREP_SHAPE_REPRESENTATION('ABSR',(#735),#36);
#746=SHAPE_REPRESENTATION_RELATIONSHIP('SRR','None',#745,#41);
ENDSEC;
END-ISO-10303-21;
